Every Rose Has Its Thorn - Poison(Open up and say..Ahh)
Tabbed by Slush
Tune down Ѕ step

b = bend
r = release
~ = vibrato
 = slide down
/ = slide up
h = hammer on
p = pull off
()= sustain
 
The intro, verses and chorus have 3 chords
   G  Cadd9  D
e -3----3----2-
B -3----3----3-
G -0----0----2-
D -0----2----0-
A -2----3------
E -3-----------

Bridge has 5 chords, sounds better as power chords
    E  D  C  G  F#
e -----------------
B -----------------
G -----7--5--------
D --2--7--5--5--4--
A --2--5--3--5--4--
E --0--------3--2--

Solo 1 (after 1st chorus)

e ----------------------------------------------------15br~~~--------
B ----------15br~~~--------------------13-12-----------------12br~~~-
G –14brb~~-----------------12-14-12----------14-brbr-----------------
D -----------------12--14-----------14-------------------------------
A -------------------------------------------------------------------
E -------------------------------------------------------------------

Solo 2 (after bridge)

e -----------------------------------------------------
B --------------13--12--13--12--13------15-------------
G --------16~~---------------------14b-----14r—-12~~~-
D –14b-------------------------------------------------
A -----------------------------------------------------
E -----------------------------------------------------

e ---------------------------------------------------------------
B –15b--15--13-12----12------------------------------------------
G ----------------14----14-12-14-12-11-12-11--------11~-12~------
D -------------------------------------------12/14~~--------14~~-
A ---------------------------------------------------------------
E ---------------------------------------------------------------

e -----15-----15-----15~~--------------
B –15b----15b----15b-------------------
G ------------------------11~-12~------
D --------------------------------14~~-
A -------------------------------------
E -------------------------------------

e -15—h19p15h17p15---h19p15h17p15---15h17p15-(15)-
B ----------------h17------------h17--------------
G ------------------------------------------------
D ------------------------------------------------
A ------------------------------------------------
E ------------------------------------------------
   ^---REALLY fast,easiest way is to tap---^


Текст, аккорды и табулатура для песни "Every Rose Has Its Thorn", исполняет "Poison".
Используемые в песне аккорды можно найти в разделе Как брать аккорды. Аккорды для шестиструнной гитары. Другие песни можно найти на нашем сайте, воспользовавшись алфавитным указателем вверху страницы.


 
Ошибка в тексте? Выделите ошибку и нажмите Ctrl+Enter