It´s not a standard turning. In POD turning is DADGBE
Let´s go:o)
If you have problems mail me [email protected]



E-------------------------------------------------------------------
B-------------------------------------------------------------------
G-------------------------------------------------------------------
D-0-0-0-0-0----5-5-5----8-8-8-8-8-8-8-8-8----8-8-8-8-8-8----3-3-3-3-
A-0-0-0-0-0----5-5-5----8-8-8-8-8-8-8-8-8----8-8-8-8-8-8----3-3-3-3-
D-0-0-0-0-0----5-5-5----8-8-8-8-8-8-8-8-8----8-8-8-8-8-8----3-3-3-3-
  Every day is a new day.....


E-------------------------------------------------------------------
B-------------------------------------------------------------------
G-------------------------------------------------------------------
D-0-0-0-0-0---9-9--9-9-9-9---3-3--3-3--0--3-3----3-2-3-2------------
A-0-0-0-0-0---9-9--9-9-9-9---3-3--3-3--0--3-3--------------3/0------
D-0-0-0-0-0---9-9--9-9-9-9---3-3--3-3--0--3-3-----------------------
  Why-yyyy i feel so alive.........


Текст, аккорды и табулатура для песни "Alive", исполняет "P.O.D.".
Используемые в песне аккорды можно найти в разделе Как брать аккорды. Аккорды для шестиструнной гитары. Другие песни можно найти на нашем сайте, воспользовавшись алфавитным указателем вверху страницы.


Слушать онлайн Alive


P.O.D.Alive на Яндекс.Музыке


 
Ошибка в тексте? Выделите ошибку и нажмите Ctrl+Enter