------------------------------------------------------------------------------- 
                       UNCLE GORDIE - The Planet Smashers 
------------------------------------------------------------------------------- 

By:BassD r=let the note sound 
h=hammer on 
/=slide down 

Intro (00:01) 
G|-------------------------------------------| 
D|-----------------------------------4h5---5-| 
A|---------------7-7-5-3r--3-2-3-5r------5---| 
E|-3r--2-3-2-0r------------------------------| 

G|----------------------------------------------| 
D|----------------------------------------------| 
A|---------------7-7-5-3r--3-2-3-5--5--5-5-5-5--| 
E|-3r--2-3-2-0r---------------------------------| 

Verse (00:17) 
G|-----4-4-5-4-5-4-------------------------------------7-7-5-5-4-4--| 
D|-5-5-----------------7-7-5-5-4-4-----2-2-3-3-5-5------------------| 
A|-----------------7-7-------------3-3-------------5-5--------------| 
E|(x4)--------------------------------------------------------------| 

Chorus (00:38-00:39) 
G|-----------------------------------------------------------| 
D|-----------------------------------------------------------| 
A|-3--3-3-3-3-3-3-5--5-5-5-5-5-5------------------------7--5-| 
E|-------------------------------3--3-3-3-3-3-3-0-0-0-0------| 

G|-------------------------------------------------------| 
D|-------------------------------------------------------| 
A|-3--3-3-3-3-3-3-5--2--3--0------------------------7--5-| 
E|---------------------------3--3-3-3-3-3-3-0-0-0-0------| 

G|-------------------------------------------------------------| 
D|-------------------------------5--5-5-5-5-5-5----------------| 
A|-3--3-3-3-3-3-3-5--5-5-5-5-5-5----------------7--7-7-7-7-7-7-| 
E|-------------------------------------------------------------| 

G|-------------------------------------------------------| 
D|-------------------------------------------------------| 
A|-3--3-3-3-3-3-3-5--5-5-5-5-5-5-3--3-3-3-3-3-3-5-3-2-0--| 
E|-------------------------------------------------------| 

(Verse) (01:00) 
(Chorus) (01:21) 
During Cheezy Guitar Solo, play = (Verse) (01:42) 

Outro 1 (02:03) 
G|(x3)---------------------------|(x1)--------------------------| 
D|-------------------------------|------------------------------| 
A|-3--3-3-3-3-3-3-5--5-5-5-5-5-5-|-3--3-3-3-3-3-3-5--5--5-5--5--| 
E|-------------------------------|------------------------------| 

Outro 2 (02:14) 
G|-------------------------------------------| 
D|-----------------------------------4h5---5-| 
A|---------------7-7-5-3r--3-2-3-5r------5---| 
E|-3r--2-3-2-0r------------------------------| 

G|-------------------------------------------| 
D|--------------------------------------12r--| 
A|---------------7-7-5-3r--3-2-3-5r---5/-----| 
E|-3r--2-3-2-0r------------------------------|End 

Fun song about breaking hockey players skulls 
with Uncle Gordie! Fun to play! 
[email protected] 

[email protected]==============


Текст, аккорды и табулатура для песни "Uncle Gordie", исполняет "Planet Smashers".
Используемые в песне аккорды можно найти в разделе Как брать аккорды. Аккорды для шестиструнной гитары. Другие песни можно найти на нашем сайте, воспользовавшись алфавитным указателем вверху страницы.


 
Ошибка в тексте? Выделите ошибку и нажмите Ctrl+Enter