[Intro]
C -----5-5--5-5--5-5--5-5--5-5--5-5--5-5--5-5--5-5-|
C -----6-6--6-6--6-6--6-6--6-6--6-6--6-6--6-6--6-6-|
G#-----7-7--7-7--7-7--7-7--7-7--7-7--7-7--7-7--7-7-|
D#-------------------------------------------------|
A#-------------------------------------------------|
F -------------------------------------------------|

[VERSE]

C -----5-5--5-5--5-5--5-5-----------------|
C -----6-6--6-6--6-6--6-6-----------------|[Since we're feeling so anesthetised]
G#-----7-7--7-7--7-7--7-7-----------------| [Reminds me of the secondtime]
D#----------------------------------------| 
A#----------------------------------------|
F ----------------------------------------|

C -----------------------------------------------------------|
C -----------------------------------------------------------| [In our comfort zone]
G#-----------------------------------------------------------| [That i followed you home]
D#-10-10--10-10-10-10-10-10-8—8—8-8—8—8-—8---8-7-7-7-7-7-7-7-|
A#-8—8—8--8—-8—-8-—8--8---8—8—8-8—8—8—8--8---8—8—8-8—8—8—8-8-|
F--6—6—6—-6—-6-—6—-6--6---6—6—6—6—6—6—6--6---6—6—6—6—6—6—6—6-|

C ------------------------|
C ------------------------| 
G#------------------------|
D#--5-5-5-5-5-5-5-5-------|
A#--8-8—8-8—8—8—8-8-------|
F---6—6—6—6—6—6—6—6-------|


[Chorus]

C --------------------------------------------------------|
C --------------------------------------------------------| 
G#----10--10-10-10-10--9--9--9--9--9--7—7—7—7—7—5—5—5—5—5-| 
D#--------------------------------------------------------|
A#-----8--8--8--8--8---7--7--7--7--7--5-5-5-5-5-3-3-3-3-3-|
F --------------------------------------------------------|

C ------------------------------------------------------------|
C-----13-13-13-13-13--11-11-11-11-11—---10-10-10-10—8—8—8—8—8-| 
G#------------------------------------------------------------|
D#----10-10-10-10-10---8--8--8--8--8-----7—7—7—7—7—-5—5—5—5—5-|
A#------------------------------------------------------------|
F ------------------------------------------------------------|


Текст, аккорды и табулатура для песни "The Bitter End", исполняет "Placebo".
Используемые в песне аккорды можно найти в разделе Как брать аккорды. Аккорды для шестиструнной гитары. Другие песни можно найти на нашем сайте, воспользовавшись алфавитным указателем вверху страницы.


Слушать онлайн The Bitter End


Monsters of RockThe Bitter End на Яндекс.Музыке


 
Ошибка в тексте? Выделите ошибку и нажмите Ctrl+Enter