Weird Tuning: Ab Ab Ab Ab B C#

Tab for two guitars 

Intro / Verses (for Guit.1 & 2)

Rhy.Fig.1

+ + + + + + + +
e:---------------------------------|-----------------------------0---|
B:---------------------------------|-----------------------------0---|
G:---------------------------------|-----------------------------0---|
D:---------------------------------|---------------------------------|
A:-8---8---8---8---8---8---8---8---|-8---8---8---8---8---8---8-8-8---|
E:---------------------------------|---------------------------------|

Rhy.Fig.2

e:---------------------------------|---------------------------------|
B:---------------------------------|---------------------------------|
G:---------------------------------|---------------------------------|
D:---------------------------------|---------------------------------|
A:---------------------------------|---------------------------------|
E:-15--15--15--14------14------14--|-1414-17-17-17-17-17-17--17-17-0-|


+ + + + + + + +
e:---------------------------------|-----------------------------0---|
B:---------------------------------|-----------------------------0---|
G:---------------------------------|-----------------------------0---|
D:---------------------------------|---------------------------------|
A:-7-7-7-6-----7---7---7---7---7---|-7---7---7---7---7---7---7-7-7---|
E:---------------------------------|---------------------------------|

e:---------------------------------|---------------------------------|
B:---------------------------------|---------------------------------|
G:---------------------------------|---------------------------------|
D:---------------------------------|---------------------------------|
A:---------------------------------|---------------------------------|
E:-11-11-11--12---12-12---12---12--|-11-11-11--12---12-12---12---12--|


Chorus:

+ + + + + + + +
e:---------------------------------|---------------------------------|
B:---------------------------------|---------------------------------|
G:---------------------------------|---------------------------------|
D:---------------------------------|---------------------------------|
A:-3---3---3---3---3---3---3--0--0-|-8-8-8---8---8---8---8---8---0---|
E:-3---3---3---3---3---3---3--0--0-|-8-8-8---8---8---8---8---8---0---|

e:---------------------------------|---------------------------------|
B:---------------------------------|---------------------------------|
G:---------------------------------|---------------------------------|
D:---------------------------------|---------------------------------|
A:-6---6---6---6---6---6---6--3--3-|-8-8-8---8---8---8---8---8---0---|
E:-6---6---6---6---6---6---6--3--3-|-8-8-8---8---8---8---8---8---0---|



+ + + + + + + +
e:---------------------------------|---------------------------------|
B:---------------------------------|---------------------------------|
G:---------------------------------|---------------------------------|
D:---------------------------------|---------0---0---0---0---0---0---|
A:-7---7---7---7---7---7---7---7---|-7---7---7---7---7---7---7---7---|
E:-7---7---7---7---7---7---7---7---|-7---7---7---7---7---7---7---7---|

e:---------------------------------|---------------------------------|
B:---------------------------------|---------------------------------|
G:---------------------------------|---------------------------------|
D:---------------------------------|---------0---0---0---0---0---0---|
A:-7---7---7---7---7---7---7---7---|-7---7---7---7---7---7---7---7---|
E:-7---7---7---7---7---7---7---7---|-7---7---7---7---7---7---7---7---|


+ + + + + + + +
e:---------------------------------|---------------------------------|
B:---------------------------------|---------------------------------|
G:---------------------------------|---------------------------------|
D:---------------------------------|---------------------------------|
A:-3---3---3---3---3---3---3--0--0-|-101010--10--10--10--10--10--0---|
E:-3---3---3---3---3---3---3--0--0-|-101010--10--10--10--10--10--0---|

e:---------------------------------|---------------------------------|
B:---------------------------------|---------------------------------|
G:---------------------------------|---------------------------------|
D:---------------------------------|---------------------------------|
A:-6---6---6---6---6---6---6--3--3-|-101010--10--10--10--10--10--0---|
E:-6---6---6---6---6---6---6--3--3-|-101010--10--10--10--10--10--0---|



+ + + + + + + +
e:---------------------------------|---------------------------------|
B:---------------------------------|---------------------------------|
G:---------------------------------|---------------------------------|
D:---------------------------------|---------0---0---0---0---0---0---|
A:-7---7---7---7---7---7---7---7---|-7---7---7---7---7---7---7---7---|
E:-7---7---7---7---7---7---7---7---|-7---7---7---7---7---7---7---7---|

e:---------------------------------|---------------------------------|
B:---------------------------------|---------------------------------|
G:---------------------------------|---------------------------------|
D:---------------------------------|---------0---0---0---0---0---0---|
A:-7---7---7---7---7---7---7---7---|-7---7---7---7---7---7---7---7---|
E:-7---7---7---7---7---7---7---7---|-7---7---7---7---7---7---7---7---|



Rhy.Fig.3

+ + + + + + + +
e:-0-------------------------------|-0-------------------------------|
B:-0---------------0---------------|-0---------------0---------------|
G:-----------------0---------------|-----------------0---------------|
D:---------------------------------|---------------------------------|
A:---------------------------------|---------------------------------|
E:---------------------------------|---------------------------------|

e:-0-------------------------------|-0-------------------------------|
B:-0---------------0---------------|-0---------------0---------------|
G:-----------------0---------------|-----------------0---------------|
D:---------------------------------|---------------------------------|
A:---------------------------------|---------------------------------|
E:---------------------------------|---------------------------------|


End of the song, play in rhythm after the accelerated choruses:

Ryth.Fig4

+ + + + + + + +
e:---------------------------------|---------------------------------|
B:---------------------------------|---------------------------------|
G:---------------------------------|---------------------------------|
D:-0---0---0---0---0---0---0---0---|-0---0---0---0---0---0---0---0---|
A:-12--12--12--12--12--12--12------|-15--15--15--15--17--17--17--17--|
E:-12--12--12--12--12--12--12------|-15--15--15--15--17--17--17--17--|

+ + + + + + + +
e:---------------------------------|---------------------------------|
B:---------------------------------|---------------------------------|
G:---------------------------------|---------------------------------|
D:-0---0---0---0---0---0---0---0---|-0---0---0---0---0---0---0---0---|
A:-19--19--19--19--19--19--19--19--|-19--19--19--19--19--19--19--19--|
E:-19--19--19--19--19--19--19--19--|-19--19--19--19--19--19--19--19--|


After that, just play this for a while:

+ + + + + + + +
e:---------------------------------|---------------------------------|
B:---------------------------------|---------------------------------|
G:---------------------------------|---------------------------------|
D:-0---0---0---0---0---0---0---0---|-0---0---0---0---0---0---0---0---|
A:-19--19--19--19--19--19--19--19--|-19--19--19--19--19--19--19--19--|
E:-19--19--19--19--19--19--19--19--|-19--19--19--19--19--19--19--19--|

Then:

+ + + + + + + +
e:---------------------------------|---------------------------------|
B:---------------------------------|---------------------------------|
G:---------------------------------|---------------------------------|
D:-0---0---0---0---0---0---0---0---|-0---0---0---0---0---0---0---0---|
A:-12--12--12--12-/20--20--20--20--|-12--12--12--12-/20--20--20--20--|
E:-12--12--12--12-/20--20--20--20--|-12--12--12--12-/20--20--20--20--|


Текст, аккорды и табулатура для песни "Evil Dildo", исполняет "Placebo".
Используемые в песне аккорды можно найти в разделе Как брать аккорды. Аккорды для шестиструнной гитары. Другие песни можно найти на нашем сайте, воспользовавшись алфавитным указателем вверху страницы.


 
Ошибка в тексте? Выделите ошибку и нажмите Ctrl+Enter