Verse/Intro:

C  --------------------------------------------------------------------------
C  --------------------------------------------------------------------------
G# -6-6-6-6-6-6-6-6--6-6-6-6--8-8-8-8--6-6-6-6-6-6-6-6-6-6-6-----------------
D# -6-6-6-6-6-6-6-6--6-6-6-6--7-7-7-7--6-6-6-6-6-6-6-6-6-6-6-7-7-7-7-6-6-6-6-
A# -4-4-4-4-4-4-4-4--4-4-4-4--6-6-6-6--4-4-4-4-4-4-4-4-4-4-4-4-4-4-4-4-4-4-4-
F  ------------------5-5-5-5--7-7-7-7------------------4-4-4-5-5-5-5-5-5-5-5-

Pre-chorus/chorus (Stefan´s part):

C  ---------0-0-------------0-0-------------0-0---------------0-0-0-
C  ---------0-0-------------0-0-------------0-0---------------0-0-0-
G# -6-6-6-6-6-6-6-6-6-6-6-6-6-6-6-6-6-6-6-6-6-6-6-6-6-6-6-6-6-6-6-6-
D# -7-7-7-7-7-7-7-7-7-7-7-7-7-7-7-7-6-6-6-6-6-6-6-6-6-6-6-6-6-6-6-6-
A# -0-0-0-0-0-0-0-0-0-0-0-0-0-0-0-0-4-4-4-4-4-4-4-4-4-4-4-4-4-4-4-4-
F  -----------------------------------------------------------------

C  ---------0-0-0-------------0-0-0-0-0-0-0-0-0-0-0-----------0-0-0-
C  ---------0-0-0-------------0-0-0-0-0-0-0-0-0-0-0-----------0-0-0-
G# -6-6-6-6-6-6-6-6-6-6-6-6-6-6-6-6-6-6-6-6-6-6-6-6-6-6-6-6-6-6-6-6-
D# -7-7-7-7-7-7-7-7-7-7-7-7-7-7-7-7-7-7-7-7-7-7-7-7-7-7-7-7-7-7-7-7-
A# -7-7-7-7-7-7-7-7-7-7-7-7-7-7-7-7-7-7-7-7-7-7-7-7-7-7-7-7-7-7-7-7-
F  -5-5-5-5-5-5-5-5-5-5-5-5-5-5-5-5-0-0-0-0-0-0-0-0-4-4-4-4-4-4-4-4-

Pre-chorus/chorus (Brian´s part):

C  -------------------------------------------------------------------------------------
C  -------------------------------------------------------------------------------------
G# -------------------------------------------------------------------------------------
Eb -------------------------------------------------------------------------------------
Bb --------------10-10-10-10-10-10-8-8-8-8-8-8-8-
F  -------------------------------------------------------------------------------------

C  -----------------------------------------------------------------------------------------
C  -----------------------------------------------------------------------------------------
G# -----------------------------------------------------------------------------------------
Eb -----------------------------------------------------------------------------------------
Bb -----------------------------------------------
F  ---------------------------------------------------------------

Outro (Brian)
Played on live version:

C  -------------------------------------------------------------------------------
C  -------------------------------------------------------------------------------
G# -15-15-15-15-15-15--15-15-15-13-13-13-13-13-13-15-15-15-15-15-13-13-13-13-13---
Eb -12-12-12-12-12-12--12-12-12-12-12-12-12-12-12-12-12-12-12-12-12-12-12-12-12---
Bb -0--0--0--0--0--0---0--0--0--0--0--0--0--0--0--0--0--0--0--0--0--0--0--0--0----
F  -------------------------------------------------------------------------------

Last chorus (2:32) fill with tremolo effect:

C -0---0- 
C -0---0- 
G# -4---4-
D# -------
A# -------
F -------

Weird keyboard part, near end:

C -16---12----16--12--------------19--16--12--------
C -16---12----16--12--------------19--16--12--------
G# --------------------11--13-11-13------------------
Eb --------------------------------------------------
Bb --------------------------------------------------
F --------------------------------------------------


Alternate Version
Transcribed by Alexandre Viano ([email protected])

Tuning : Placebo ( F Bb Eb Ab C C )
(Tab for two guitars)

--------------------------------------------------------------------

Intro/Verse ( Guitar 2 )

+ + + + + + + + + + + + + + + +
e:-----------------------------------|
B:-----------------------------------|
G:-6---6---6---6---|-6---6---6---6---------------|
D:-6---6---6---6---|-6---6---6---6---|-6---6---6---6---|-7---7---7---7---|
A:-4---4---4---4---|-4---4---4---4---|-4---4---4---4---|-6---6---6---6---|
E:-----------------------|-5---5---5---5---|-7---7---7---7---|

Sucker love is heaven sent
Sucker love, a box I choose
Sucker love is known to swing
Like the naked leads the blind


+ + + + + + + + + + + + + + + +
e:-----------------------------------|
B:-----------------------------------|
G:-6---6---6---6---|-6---6---6---6---|-6-6-------------------|
D:-6---6---6---6---|-6---6---6---6---|-6-6-4---4---4---|-4---------------|
A:-4---4---4---4---|-4---4---4---4---|-4-4-4---4---4---|-4---7---7---7--0|
E:-----------------|---------4---4---|-4-4-5---5---5---|-5---5---5---5--0|

You pucker up, our passion´s spent
No other box I choose to use
Prone to cling and waste these things
I know I´m selfish, I´m unkind


+ + + + + + + + + + + + + + + +
e:-----------------------------------|
B:-----------------------------------|
G:-6---6---6---6---|-6---6---6---6---------------|
D:-6---6---6---6---|-6---6---6---6---|-6---6---6---6---|-7---7---7---7---|
A:-4---4---4---4---|-4---4---4---4---|-4---4---4---4---|-6---6---6---6---|
E:-----------------------|-5---5---5---5---|-7---7---7---7---|

My hearts a tart, your body´s rent
Another love I would abuse
Pucker up for heavens sake
Sucker love I always find


+ + + + + + + + + + + + + + + +
e:-----------------------------------|
B:-----------------------------------|
G:-6---6---6---6---|-6---6---6---6---|-6-6-------------------|
D:-6---6---6---6---|-6---6---6---6---|-6-6-4---4---4---|-4---6---6---6---|
A:-4---4---4---4---|-4---4---4---4---|-4-4-4---4---4---|-4---6---6---6--0|
E:-----------------|---------4---4---|-4-4-5---5---5---|-5---7---7---7--0|

My body´s broken, yours is spent
No circumstances could excuse
There´s never been so much at stake
Someone to bruise and leave behind



Chorus:

( Guitar 2 )
+ + + + + + + + + + + + + + + +
e:-----------------|-----0---0---0---------|-----4---4---4---|
B:-----------------|-----0---0---0---------|-----0---0---0---|
G:-6---6---6---6---|-6---6---6---6---|-6---6---6---6---|-6---6---6---6---|
D:-7---7---7---7---|-7---7---7---7---|-7---7---7---7---|-7---7---7---7---|
A:-7---7---7---7---|-7---7---7---7---|-7---7---7---7---|-7---7---7---7---|
E:-5---5---5---5---|-5---5---5---5---|-5---5---5---5---|-5---5---5---5---|

( Guitar 1, begins with second chorus )

+ + + + + + + + + + + + + + + +
e:-----------------------------------|
B:-----------------------------------|
G:-----------------------------------|
D:-----------------------------------|
A:-5---5---5---5---|-5---5---5---5---|-5---5---5---5---|-5---5---5---5---|
E:-5---5---5---5---|-5---5---5---5---|-5---5---5---5---|-5---5---5---5---|
* * * * * * * * * * * * * * * *

(harmonics)

Carve your name into my arm
In the shape of things to come
I serve my head up on a plate
All alone in space and time


+ + + + + + + + + + + + + + + +
e:-----------------|-----0---0---0---------|-----4---4---4---|
B:-----------------|-----0---0---0---------|-----0---0---0---|
G:-6---6---6---6---|-6---6---6---6---|-6---6---6---6---|-6---6---6---6---|
D:-6---6---6---6---|-6---6---6---6---|-6---6---6---6---|-6---6---6---6---|
A:-4---4---4---4---|-4---4---4---4---|-4---4---4---4---|-4---4---4---4---|
E:-----------------------------------|

+ + + + + + + + + + + + + + + +
e:-----------------------------------|
B:-----------------------------------|
G:-----------------------------------|
D:-----------------------------------|
A:-9---9---9---9---|-9---9---9---9---|-7---7---7---7---|-7---7---7---7---|
E:-----------------------------------|

Instead of stressed, I lie here charmed
Too much poison come undone
It´s only comfort, calling late
There´s nothing here but what here´s mine


+ + + + + + + + + + + + + + + +
e:-----------------|-----0---0---0---------|-----4---4---4---|
B:-----------------|-----0---0---0---------|-----0---0---0---|
G:-6---6---6---6---|-6---6---6---6---|-6---6---6---6---|-6---6---6---6---|
D:-7---7---7---7---|-7---7---7---7---|-7---7---7---7---|-7---7---7---7---|
A:-7---7---7---7---|-7---7---7---7---|-7---7---7---7---|-7---7---7---7---|
E:-5---5---5---5---|-5---5---5---5---|-5---5---5---5---|-5---5---5---5---|

+ + + + + + + + + + + + + + + 
+ 
e:-----------------------------------|
B:-----------------------------------|
G:-----------------------------------|
D:-----------------------------------|
A:-5---5---5---5---|-5---5---5---5---|-5---5---5---5---|-5---5---5---5---|
E:-5---5---5---5---|-5---5---5---5---|-5---5---5---5---|-5---5---5---5---|
* * * * * * * * * * * * * * * *

´Cause there´s nothing else to do
´Cause there´s nothing else to do
´Cause there´s nothing else to do
Something borrowed, something blue


+ + + + + + + + + + + + + + + +
e:-4---4---4---4---|-4---4---4---4---------------|
B:-4---4---4---4---|-4---4---4---4---------------|
G:-4---4---4---4---|-4---4---4---4---------------|
D:-6---6---6---6---|-6---6---6---6---|-6---6---6---6---|-6---6---6---6---|
A:-6---6---6---6---|-6---6---6---6---|-6---6---6---6---|-6---6---6---6---|
E:-0---0---0---0---|-0---0---0---0---|-4---4---4---4---|-4---4---4---4---|

+ + + + + + + + + + + + + + + + 
e:-----------------------------------|
B:-----------------------------------|
G:-----------------------------------|
D:-----------------------------------|
A:-3---3---3---3---|-3---3---3---3---|-3---3---3---3---|-3---3---3---3---|
E:-3---3---3---3---|-3---3---3---3---|-3---3---3---3---|-3---3---3---3---|
* * * * * * * * * * * * * * * *

Every me and every you
Every me and every you
Every me and every you
Every me and every you

(End for Guitar 1, live)

+ + + + + + + + + + + 
+ + + + + 
e:-16-16-16-16-16-16-16-16-|-16-16-16-16-16-16-16-16-|
B:-16-16-16-16-16-16-16-16-|-16-16-16-16-16-16-16-16-|
G:---------------------------------------|
D:---------------------------------------|
A:---------------------------------------|
E:---------------------------------------|

e:-16-16-16-16-16-16-16-16-|-12-12-12-12-12-12-12-12-|
B:-16-16-16-16-16-16-16-16-|-12-12-12-12-12-12-12-12-|
G:---------------------------------------|
D:---------------------------------------|
A:---------------------------------------|
E:---------------------------------------|

 

+ + + + + + + + + + + + + + + + 
e:-9-9-9-9-9-9-9-9-|-9-9-9-9-9-9-9-9-|-9-9-9-9-9-9-9-9-|-9-9-9-9-9-9-9-9-|
B:-9-9-9-9-9-9-9-9-|-9-9-9-9-9-9-9-9-|-9-9-9-9-9-9-9-9-|-9-9-9-9-9-9-9-9-|
G:-----------------------------------|
D:-----------------------------------|
A:-----------------------------------|
E:-----------------------------------|

Играйте на здоровье и помните, что Placebo енто круто!:)


Текст, аккорды и табулатура для песни "Every You Every Me", исполняет "Placebo".
Используемые в песне аккорды можно найти в разделе Как брать аккорды. Аккорды для шестиструнной гитары. Другие песни можно найти на нашем сайте, воспользовавшись алфавитным указателем вверху страницы.


Слушать онлайн Every You Every Me


PlaceboEvery You Every Me на Яндекс.Музыке


 
Ошибка в тексте? Выделите ошибку и нажмите Ctrl+Enter