-------------------------------------------------------------------------------
			  Bruise Pristine - Placebo   
-------------------------------------------------------------------------------

Tabbed by:DasPop
Email:[email protected]

Tuning: standard placebo tuning: CAPO 1° fret

intro: first part
e|-x-x-x-x-x-x-x-x-x-x-x-x-x-x-x-x-x-x-x-x-x-x-x-x-x-x-x-x-x-x-x-x-x-x-x-x-x-|
B|-x-x-x-x-x-x-x-x-x-x-x-x-x-x-x-x-x-x-x-x-x-x-x-x-x-x-x-x-x-x-x-x-x-x-x-x-x-|
G|-x-x-x-x-x-x-x-x-x-x-x-x-x-x-x-x-x-x-x-x-x-x-x-x-x-x-x-x-x-x-x-x-x-x-x-x-x-|
D|-x-x-x-x-x-x-x-x-x-x-x-x-x-x-x-x-x-9-9-9-9-9-9-9-9-9-9-9-9-9-9-9-9-9-9-9-9-|
A|-7-7-7-7-7-7-7-7-7-7-7-7-7-7-7-7-7-7-7-7-7-7-7-7-7-7-7-7-7-7-7-7-7-7-7-7-7-|
E|-x-x-x-x-x-x-x-x-x-x-x-x-x-x-x-x-x-x-x-x-x-x-x-x-x-x-x-x-x-x-x-x-x-x-x-x-x-|

intro: second part ( drum drops in

e|---------------------------------------------------------------------------|
B|---------------------------------------------------------------------------|
G|-9-9-9-9-9/-9-9-9-9-9-9-9-9-9-9/-9-9-9-9-9----10-9--9--9--9--9--9-----10---|
D|-9-9-9-9-9/-8-8-8-8-8-9-9-9-9-9/-8-8-8-8-8-10-10-10-10-10-10-10-10-10-10---|
A|-7-7-7-7-7/-7-7-7-7-7-7-7-7-7-7/-7-7-7-7-7-8--8--8--8--8--8--8--8--8--8----|
E|---------------------------------------------------------------------------|

e|----------------|
B|----------------|
G|-9--9--9--9--9--|
D|-10-10-10-10-10-| x2
A|-8--8--8--8--8--|
E|----------------|

Verse = same chords as the intro 
Chorus
e|---------------------------------------------------------|-------------------|
B|---------------------------------------------------------|-------------------|
G|-------------------------------1-x-2-2-2-x-3-3-3-x-4-4-4-|-1-x-2-2-2-x-3-3-3-|
D|-2-x-3-3-3-x-4-4-4-x-5-5-5-x-x-2-x-3-3-3-x-4-4-4-x-5-5-5-|-2-x-3-3-3-x-4-4-4-|
A|-2-x-3-3-3-x-4-4-4-x-5-5-5-x-x-2-x-3-3-3-x-4-4-4-x-5-5-5-|-2-x-3-3-3-x-4-4-4-|
E|-0-x-1-1-1-x-2-2-2-x-3-3-3-x-x-0-x-1-1-1-x-2-2-2-x-3-3-3-|-0-x-1-1-1-x-2-2-2-|

e|---------|
B|---------|
G|-x-4-4-4-|
D|-x-5-5-5-| 
A|-x-5-5-5-|
E|-x-3-3-3-|
this part (between |...|) is completed by a second guitar who sounds like this :

e|---------------------|
B|---------------------|
G|-4-5-5-5-6-6-6-7-7-7-|
D|---------------------|
A|---------------------|
E|---------------------|

e|-------------------|
B|-------------------|
G|-5-5-5-5-5-5-5-5-5-|
D|-5-5-5-5-5-5-5-5-5-|
A|-3-3-3-3-3-3-3-3-3-|
E|-------------------|

Verse
Chorus
Bridge = scratching etc. + two times the first part of the intro and then a little verse again 
Chorus


Текст, аккорды и табулатура для песни "Bruise Pristine", исполняет "Placebo".
Используемые в песне аккорды можно найти в разделе Как брать аккорды. Аккорды для шестиструнной гитары. Другие песни можно найти на нашем сайте, воспользовавшись алфавитным указателем вверху страницы.


 
Ошибка в тексте? Выделите ошибку и нажмите Ctrl+Enter