album "Obsured by clouds"

riff^1
|-------3---------|-------2---------|-------1---------|-------0---------|
|-----0---0-------|-----0---0-------|-----0---0-------|-----0---0-------|
|---0-------0---0-|---0-------0---0-|---0-------0---0-|---0-------0---0-|
|-5-----------5---|-4-----------4---|-3-----------3---|-2-----------2---|
------------------------|
------------------------|

|-------0---------------|-------2---------|-2---0-0-0-0-----|
|-----0---0-------------|-----1---1-------|-1---1-1-1-1-0---|
|---0-------0---0-|---0---0---0---0-|---2-------2---2-|-----2-2-2-2-0---|
|-1-----------1---|-0---1---2---1---|-0-----------0---|---0-0-0-0-0-0---|
------------------------|
------------------------|
                                                       

Вступление: riff^1

куплет 1: riff^1

  Heaven sent the promised land 
  Looks alright from where I stand 
  Cause I´m the man on the outside looking in 

  Waiting on the first step 
  Show where the key is kept 
  Point me down the right line because it´s time 

припев:
            G            G7
  So let me in from the cold
          C      E  Am 
  Turn my lead into gold
                G                         G7 
  Cause there´s chill wind blowing in my soul
                          D7  D9 
  And I think I´m growing old 

куплет 2: riff^1

  Flash the red is wots...uh the deal 
  Got to make to the next meal 
  Try to keep up with the turning of the wheel. 

  Mile after mile 
  Stone after stone 
  Turn to speak but you´re alone 
  Million mile from home you´re on your own

припев:

          G            G7
  So let me in from the cold
          C      E  Am 
  Turn my lead into gold
                G                         G7 
  Cause there´s chill wind blowing in my soul
                          D7  D9 
  And I think I´m growing old 

проигрыш: D7 D7sus4 D7 D9 D7



куплет 3: riff^1

  Fire bright by candlelight 
  And her by my side 
  And if she prefers we will never stir again 

  Someone said the promised land 
  And I grabbed it with both hands 
  Now I´m the man on the inside looking out 

припев:
	   G            G7
  Hear me shout "Come on in, 
             C              E   Am
  What´s the news and where you been?" 
                G                   G7
  Cause there´s no wind left in my soul
                  D7  D9 
  And I´ve grown old


D7sus4  x x 0 2 1 3
D9      x x 0 2 1 0


Текст, аккорды и табулатура для песни "Wots Uh The Deal", исполняет "Pink Floyd".
Используемые в песне аккорды можно найти в разделе Как брать аккорды. Аккорды для шестиструнной гитары. Другие песни можно найти на нашем сайте, воспользовавшись алфавитным указателем вверху страницы.


Слушать онлайн Wots...Uh The Deal


The Machine Perform Pink FloydWots...Uh The Deal на Яндекс.Музыке


 
Ошибка в тексте? Выделите ошибку и нажмите Ctrl+Enter