---------------:--3--3--3--------------------3-3--3------
---------------:--3--3--3--------------------3-3--3------
---------------:--0--0- 0------0-------------0-0--0------  Два раза
---------0--2--:------------2-----2--0-------------------
----0h2--------:-----------------------------------------
--3------------:-----------------------------------------
         Второй раза гитара 2 входит после точечной линии

-----------------3--3--3--------------------3-3--3-------
-----------------3--3--3--------------------3-3--3-------
-----------------0--0- 0--------------------0-0--0-------  Играть дважды, Потом легенько 
---------0--2--------------2--0--------------------------  поиграйте аккорд G , 
----0h2-------------------------2--0---------------------  Теперь возвращайтесь к началу 
--3------------------------------------------------------  И начанайте играть в 2 гитары


1 соло (точное)
Аккустическое

--------------------------------------3-/-5--5--3----------------------
-------3--5---3-----------------------3-/-5--5--3---3-/-5--5--3-------
--2/4-------4---4p2p0--------------------------------2-/-4--4--2--0----
-----------------------0-----0--0---------------------------------------
--------------------------/2--------------------------------------------
------------------------------------------------------------------------

------------------------------------------------------------------------
--3-/-5--5--3-------------3-----5--5b6r5p3------------3--5-------------
--2-/-4--4--2--4-----2/4-----4--------------4--2--4b5-------4b6--2-----
----------------5-------------------------------------------------------
------------------------------------------------------------------------
------------------------------------------------------------------------

------------------------------------------------------------------------
---------3-----5--5b6--5b6--3-------------------------------------------
---2/4------4------------------4--2--4b5---2---------------------------- 
------------------------------------------------------------------------
------------------------------------------------------------------------
------------------------------------------------------------------------


                Конец соло


         -Ну а куплет довольно легкий-


      G - C - D - Am - G - D - C - Am


А это бассы

Куплет            
G---------------------------------------|-------2-2---|
D-------5-5-5---5-------|----------5---------|------7-------------|
A------------------0--2-|--3----3----3-3-----|-5------5-5---3-2-|-0-----------|
E-3--3------------------------------------|

G---------------------------|--------5------------|-------2-2---|
D-----5---5-5-------|-------7---7---7-7-|------5---5---5--------|
A-------5------3-4--|--5------5---5-5-5-|-3----------3-3--3-2-|-0-----------|
E--3------------------------------------|

                     Соло 1  
G--------------------0---|-------4-----------2----|
D------5-----------0-|-2-----0-2---2-|-0---5----------0-|-2---2--0-2---0--|
A--------5-----0h2--------0h2---------|
E--3-------3-3-----------|----------3-------------|

G-------------------------|---------2---2------------|
D------------------0-|-2--------2-0---|-------2---2-------0-|-2--------2-0---|
A-0------------0h2------2-|-0-------------0h2------2-|
E-----7---3-3---------------------------|

G--------------------------------------------|
D-----------7--7-7-|---------5-5-5-----------|--------5--------------|
A-0/------7------------5-----0-2-|-3--------3-3-2-3------|
E------------------|--3--------------3-------------------|

G--------------------|------2-2--------------------|
D-----7--7-----7-----|----------2-----5--5---5-----|
A-5--------5-5---3-2-|-0----------0---|-------3/5------5---3-4-|
E-------------------------|--3---------------------|

G---------7----------|---------5-5--------------------|
D-------7------------|-------5--------------|---------2---|-----5--5--------0-|
A-5---------5----5-4-|-3-----------3----3-2-|-0---------0---0h2---|
E---------------------------------|-3---------3-------|

G-------------0---------------------0----|
D-2------2-2----2-|-0-------------------0-|-2------2---2-2-----2-| 
A-----------------------0h2--------------|
E-----------------|----3-3---3-3--3------------------|

G-----------------------------------hold--------|
D-0---------------------0-|-2------2--2-0----|---------7-7---(7)-----0-|
A--------5---------0h2--------2-|-0------------------0h2---|
E--------------3--3-----------------------------|

G-----------------------------------------|
D-2-----2--2-2-0--------------|------5-----5----|-------5-------2-|
A-----------------2-|-0----0-0--0--0--2-0-|--------5------5-0h2---|
E-----------------------------|-3--------3------|-3-------3-------|

Соло 2(Outro)
G------------------0---------------------0---|
D-2--0-2----0-0-2-----2-|-0----5--------------0-|-2------2--0-2----2-|
A-----------------------------0h2------------|
E-----------------------|---------3-3-0-3----------------|

G--------------------------------------------------|
D-0----------------------0-|-2------2--0-2-0----7-7----------0-|
A-------10----------0h2----------2-|-0------/7----------0h2---|
E-----------0-3--0-3-------------------------------|

                                                Begin fade
G--------------------------------9----------7--7-|
D-2-------2--0-2-0-------7-7---7-----5--5--------|
A-------------------2-|-0----------7-----------|---------3-5-------------|
E----------------------------------|-3-----------------------|

G-----7-7-----7-7------------------0-----------------|
D-5-------5-----------------0-|-2-------2--0-2----2-|-0------5-------------0-|
A-----------------------0h2--------------------0h2---|
E-----------------3--3------------------2-3--3-------|

G------------------0-------------------------------|
D-2-------2--0-2-0----2-|-0------5----------------0-|-2------0-2---2--0----|
A-----------------------2-0-------0h2------------2-|
E---------------------------3--3-------------------|

G---------2----------------------|---------Fade out-|
D------------2--------0-|-2----0-2---2--0-----------|
A-0------------0--0h2----------2-|-0----------------|
E---------------------------------------|

C                         
So... 
                     D
So you think you can tell
            Am  
Heaven from Hell
                G
Blue skyes from pain
                     D
Can you tell a green feild
                   C
From a cold steel rail
               Am
A smile from a vail
                     G
Do you think you can tell
Did they get you to trade 
Your heroes for ghosts
Hot ashes for trees 
Hot air full of cold breathe 
Cold concrede for change
Did you exchange 
a Walk-out part in the wall 
For a lead role in a cage

(потом идет вступление)

How i wish 
How I wish you were here 
We´re just 2 lost souls swimming in a fish bowl
Year after year
Running over the same old ground 
What have we found 
Same old tears 
Wish you were here

(потом идет вступление)


Текст, аккорды и табулатура для песни "Whish You Were Here", исполняет "Pink Floyd".
Используемые в песне аккорды можно найти в разделе Как брать аккорды. Аккорды для шестиструнной гитары. Другие песни можно найти на нашем сайте, воспользовавшись алфавитным указателем вверху страницы.


 
Ошибка в тексте? Выделите ошибку и нажмите Ctrl+Enter