SHINE ON YOU CRAZY DIAMOND PART VI
Pink floyd


        shine part VI

E--||------------------------------------|-----------------------------|
B--||*-----------------------------------|-----------------------------|
G--||------------------------------------|-----------------------------|
D--||------------------------------------|-----------------------------|
A--||*-----------------------------------|-----------------------------|
E--||---3--3--3--3--3--3--3--3--3--3--3--|--3--3--3--3--3--3--3--3--3--|

E|-----|---||--------------------------------------|------------------|
B|-----|--*||--------------------------------------|------------------|
G|-----|---||--------------------------------------|------------------|
D|-----|---||--------------------------------------|------------------|
A|-----|--*||--------------------------------------|------------------|
E|--3--|---||--3--3--3--3--3--3--3--3--3--3--3--3--|--15----------3--|

E|----------------------|--------------------------|----10----10----10--|
B|----------------------|--------------------------|----11----11----11--|
G|----------------------|--------------------------|----12----12----12--|
D|----------------------|--------------------------|--------------------|
A|----------------------|--------------------------|--------------------|
E|------1/3----1/3------|----15------3--1/3--1/3--|--------------------|

E|--10---------|------|-------------------------------*|--------------|
B|--11---------|------|-------------------------------*|--------------|
G|--12---------|----7/|--10---------------------------*|--------------|
D|--------------|----5/|---8---------------------------*|--------------|
A|--------------|------|-------------------------------*|--------------|
E|---------15--|------|------------15------3----1/3--*|--------------|

                                     slide guitar

E|---------------------------------------------------------------------|
B|---------------------------------------------------------------------|
G|--------------------------------17/18------------1815---------------|
D|--------------------------------------------------------15/17--------|
A|---------------------------------------------------------------------|
E|---------------------------------------------------------------------|

E|---------------------------------------------------------------------|
B|---------------------------------------------------------------------|
G|---------------------------------------------------------------------|
D|--------/15/1715/--17----------------------------------17/----18----|
A|---------------------------------------------------------------------|
E|---------------------------------------------------------------------|

E|------------------|--------------------------|----------------------|
B|------------------|--------------------------|----------------------|
G|------------------|--------------------------|----18----15---------|
D|------------------|--------------------------|---------------15/17--|
A|------------------|--------------------------|----------------------|
E|------------------|--------------------------|----------------------|

E|--------------------------------------------------------------------|
B|--------------------------------------------------------------------|
G|----------------17/--18--------------------------17/18--------------|
D|--------------------------------------------------------------------|
A|--------------------------------------------------------------------|
E|--------------------------------------------------------------------|

E|----------------------------------------------------------------------|
B|----------------------------------------------------------------------|
G|----------------------------------------------------------------------|
D|-----------------------------------------12----10--------------------|
A|----0-----------------------------------------------------------------|
E|----------------------------------------------------------------------|

E|---------------------------------------------------------------------|
B|------11p8-----------------------------------------------------------|
G|------------------0--------------------------------------------------|
D|--12-----------------------------------------------------------------|
A|---------------------------------------------------------------------|
E|---------------------------------------------------------------------|

E|---------------------------------------------------------------------|
B|---------------------------------------------------------------------|
G|--------------------------------------------------------------5------|
D|------5----3----53------/----4----/----5---------------------------|
A|---------------------------------------------------------------------|
E|---------------------------------------------------------------------|

E|--------------||-----------------------------------------------------|
B|--------------||-----------------------------------------------------|
G|--------------||--12------1210------12------------------------------|
D|--------------||-----------------12----------------------------------|
A|--------------||-----------------------------------------------------|
E|--------------||-----------------------------------------------------|

E|---------------------------------------------------------------------|
B|------------------11----10------------------------------------------|
G|-----------------------------------------7----10/------12------------|
D|--------------12------------------------------10/------12------------|
A|---------------------------------------------------------------------|
E|---------------------------------------------------------------------|

E|--------------------------------------------------------------------|
B|--------------------------------------------------------------------|
G|---------------------------------------------------------12----12--|
D|----------------------------------------10/12----12-----------------|
A|----13--12----10----------------------------------------------------|
E|--------------------------------------------------------------------|

E|--------------------------------------------------------------------|
B|--------------------------------------------------------------------|
G|--10------12--------12/--19------15/17----/15--15----/14------------|
D|------12------------------------------------------------------------|
A|--------------------------------------------------------------------|
E|--------------------------------------------------------------------|

E|--------------------------------------------------------------------|
B|--------------------------------------------------------------------|
G|--------------------------------15------------17--21------17----15--|
D|------------15--17----15--17----15--17------------------------------|
A|--------------------------------------------------------------------|
E|--------------------------------------------------------------------|

E|---------------------------------------------------------------------|
B|---------------------------------------------------------------------|
G|----12---------------------------------------------------------------|
D|------------12--10----8----12------------------15/----17----14------|
A|---------------------------------------------------------------------|
E|---------------------------------------------------------------------|

E|---------------------------------------------------------------------|
B|---------------------------------------------------------------------|
G|---------------------------------------------------------------------|
D|--------14--12--10--------------10/----------------------------------|
A|--------------------12--13-------------------------------------------|
E|---------------------------------------------------------------------|

E|-----------------------------------------------------------------------|
B|-------------------------------------10--11----10----10---------------|
G|------12----1210------12---------------------------------10----10/12--|
D|------12-----------12--------------------------------------------------|
A|-----------------------------------------------------------------------|
E|-----------------------------------------------------------------------|

E|---------------------------------------------------------------------|
B|-------------------------------------------20----------20------------|
G|--12----------------/17----19----------------------------------------|
D|-------------------------------------------------------------10------|
A|---------------------------------------------------------------------|
E|---------------------------------------------------------------------|

E|--------------------------------------------------------------------|
B|--------------------------------------------------------------------|
G|--15----------14--------12------10------7------5------3------2------|
D|--------------------------------------------------------------------|
A|--------------------------------------------------------------------|
E|--------------------------------------------------------------------|

E|------------------------------------||--*|-----------------------------|
B|---------------------3--------------||--*|-----------------------------|
G|-----------0----2/3-----3-----------||--*|--------12-------------------|
D|----3/5----------------------10/12--||--*|-----------------------------|
A|------------------------------------||--*|----------------------13/12--|
E|------------------------------------||--*|-----------------------------|

E|------------------------------------------------------------------||--|
B|------------------------------------------------------------------||--|
G|------------------------------------------------------------------||--|
D|-------------------------------------------------10--------------||--|
A|--10--------10--8--10--8------/--10-------------------------------||--|
E|-----------------------------------------10-----------------------||--|

      slide off fret board through out tab approximates extended finger board

E|---------------------------------------------------------------------|
B|---------------------------------------------------------------------|
G|----24------24/22/24----24--------------2422--24/27----24------/22--|
D|----24--------------------------22--24--2422------------------------|
A|---------------------------------------------------------------------|
E|---------------------------------------------------------------------|

E|----------------------------------------------------------------------|
B|----------------------------------------------------------------------|
G|--------24--24/27------24------/22--------24--------2422------22/24--|
D|----24--------------------------------24-------------------24---------|
A|----------------------------------------------------------------------|
E|----------------------------------------------------------------------|

E|--------------------------------------------------------------------|
B|--------------------------------------------------------------------|
G|--24-----------------24------24----/------29----29--------27--------|
D|------------22/24--------24-----------------------------------------|
A|--------------------------------------------------------------------|
E|--------------------------------------------------------------------|

E|--------------------------------------------------------------------|
B|--------------------------------------------------------------------|
G|------------26--------24------22/24------24--------24--------------|
D|-------------------------------------24------------24--------------|
A|--------------------------------------------------------------------|
E|--------------------------------------------------------------------|

E|--------------------------------------------------------------------|
B|----------------1/----------------------------------------------27--|
G|--------------------------------------------------------------------|
D|--------------------------------------------------------------------|
A|--------------------------------------------------------------------|
E|--------------------------------------------------------------------|

E|------2725------27------2725/27----29/29------2927--27----2725--|
B|-------------27-----------------------------------------------------|
G|--------------------------------------------------------------------|
D|--------------------------------------------------------------------|
A|--------------------------------------------------------------------|
E|--------------------------------------------------------------------|

E|------*|----29--------27--29--------------29----------29--29--------|
B|--27--*|------------------------------------------------------------|
G|------*|------------------------------------------------------------|
D|------*|------------------------------------------------------------|
A|------*|------------------------------------------------------------|
E|------*|------------------------------------------------------------|

E|------------------------------------------27------26--26--------22--|
B|--------------------------------------------------------------------|
G|--------------------------------------------------------------------|
D|--------------------------------------------------------------------|
A|--------------------------------------------------------------------|
E|--------------------------------------------------------------------|

E|--------2220--20---------------------------------------------------|
B|-----------------------13/15----------------------------------------|
G|--------------------------------------------------------------------|
D|--------------------------------------------------------------------|
A|--------------------------------------------------------------------|
E|--------------------------------------------------------------------|

E|--------------------------------------------15-----------------------|
B|----------------------------------------------------1513----11--13--|
G|---------------------------------------------------------------------|
D|---------------------------------------------------------------------|
A|---------------------------------------------------------------------|
E|---------------------------------------------------------------------|

E|------15----15/17/18----17------15----13----------13----------------|
B|--15-----------------------------------------------------------------|
G|---------------------------------------------------------------------|
D|---------------------------------------------------------------------|
A|---------------------------------------------------------------------|
E|---------------------------------------------------------------------|

E|----------13/15--------------------------------------------*|--------|
B|-----------------------1513--11------------13/15----------*|--------|
G|------------------------------------12---------------------*|--------|
D|-------------------------------------------------------12--*|--------|
A|-----------------------------------------------------------*|--------|
E|-----------------------------------------------------------*|--------|

E|---------------------------------------------------------------------|
B|------------------------------------5b7------------5b7----r----------|
G|---------------------------------------------------------------------|
D|---------------------------------------------------------------------|
A|---------------------------------------------------------------------|
E|---------------------------------------------------------------------|

E|----------------------------------------------------------------------|
B|--5b7----r5b2----r3------5b7--------5b7-------------------------------|
G|-------------------------------------------------------------------5--|
D|----------------------------------------------------------------------|
A|----------------------------------------------------------------------|
E|----------------------------------------------------------------------|

E|-------------------------------------------------------------------3b5--|
B|----------------------------------------------------3--------4--6-------|
G|------------------5--3------------5b7------6r5--------------------------|
D|------------------------------------------------------------------------|
A|------------------------------------------------------------------------|
E|------------------------------------------------------------------------|

E|------------------3b5--------r3----3---------------------------------|
B|--------------------------------------------3b5--------3--3----------|
G|---------------------------------------------------------------------|
D|---------------------------------------------------------------------|
A|---------------------------------------------------------------------|
E|---------------------------------------------------------------------|

E|----------------------------------------------------------------------|
B|--------------------------------------4b6----4p--3--------------------|
G|----------------------------------------------------5-----------------|
D|----------------------------------------------------------------------|
A|----------------------------------------------------------------------|
E|-----------------------------------------------------------3------r3--|

E|-------------------------------------*|--|
B|-------------------------------------*|--|
G|-------------------------------------*|--|
D|-------------------------------------*|--|
A|-------------------------------------*|--|
E|------1------------------1--------2--*|--|

Legend
------
 h  = hammer-on
 p  = pull-off
 b  = bend
 r  = bend release
 /  = slide up/down
 = natural harmonic
[5] = artifical harmonic
 ~  = vibrato
 tr = trill

Chord Diagrams (low to high)
----- --------

c       0 3 2 0 1 0
        0 0 0 0 0 0
        0 0 0 0 0 0


Текст, аккорды и табулатура для песни "Shine On You Crazy Diamond Part 6", исполняет "Pink Floyd".
Используемые в песне аккорды можно найти в разделе Как брать аккорды. Аккорды для шестиструнной гитары. Другие песни можно найти на нашем сайте, воспользовавшись алфавитным указателем вверху страницы.


 
Ошибка в тексте? Выделите ошибку и нажмите Ctrl+Enter