#----------------------------------PLEASE NOTE---------------------------------#
#This file is the author's own work and represents their interpretation of the #
#song. You may only use this file for private study, scholarship, or research. #
#------------------------------------------------------------------------------##
			Shine On You Crazy Diamond
				part 2
			   by Pink Floyd


			      tabbed by
			  [email protected]

chords;
-------

	C			Gm7			Eb
-------12------		---------10-----	--------11-----|
-------13------		---------11-----	--------11-----|
-------12------		---------10-----	--------12-----|
---------------		----------------	---------------|
---------------		----------------	---------------|
---------------		----------------	---------------|


	D
-------10------|
-------10------|
-------11------|
---------------|
---------------|
---------------|

---------------0----------------|
------6-------------        (19)>17---15--17----------------------5>(7)----(7)>5>3------5---3------|
------------------------17------------------------------------5----------5--|
-----------------------------------------------------------------------------|
-----------------------------------------------------------------------------|


--18>15-----18---17>(18)--17vvv---------------------------------------------|
--15----15--15---------------------18>15--18>(20)----18>(20)>18>15--18vvvv--|
----------------------------------------------------------------------------|
----------------------------------------------------------------------------|
----------------------------------------------------------------------------|
----------------------------------------------------------------------------|

--18>15------18>15-----18>(20)---18>(20)>1815--18------------------|
---------15--------15------------------------------18>(20)--18----|
-------------------------------------------------------------------|
-------------------------------------------------------------------|
-------------------------------------------------------------------|
-------------------------------------------------------------------|


--------------------------------------------------------------------------|
--------------------------------------------------------------------------|
--15>(17)>(19)>15--12--15>(16)vvv-12------65--3>(4)----------------------|
-------------------------------------------------------5------------------|
-----------------------------------------------------------43---1--3/5---|
--------------------------------------------------------------------1/3---|


--------------------------6--------------------------------------|
-----------------------------5/6--8/-------(11)>10>8------8/-----|
------3--------------6>7------------------------------10---------|
------3--3/5vvvvvv-----------------------------------------------|
--4/5------------------------------------------------------------|
-----------------------------------------------------------------|


-------------------------------------------------------------------------|
-------------------------------------------------------------------------|
---15--17>(19)>17>(19)----17>(19)>(20)vvvvv----17>(19)>(20)---17>(20>17--|
-------------------------------------------------------------------------|
-------------------------------------------------------------------------|
-------------------------------------------------------------------------|


--------------------------------15----15-----15--------------15---15--|
----------------------------18>(20)------18>(20)>18>15---18>(20)------|
----------------------------------------------------------------------|
--16---16>17>1614>16--16---------------------------------------------|
----------------------------------------------------------------------|
----------------------------------------------------------------------|


--17>(18)--17>(18)---17-----------------------------------------------|
-------------------------18>(20)----(20)>18>15---18-------------------|
-----------------------------------------------------17>(19)=====>17--|
----------------------------------------------------------------------|
----------------------------------------------------------------------|
----------------------------------------------------------------------|


---------------------------------------------------------------------------|
---------------------------------------------------------------------------|
--(19)>17>15-----------------3---5---5>(7)>(8)>5---(8)>5--3--5--5>(7)vvvv--|
--------------17---------5------------------------------------------------|
---------------------------------------------------------------------------|
---------------------------------------------------------------------------|


-----------------------------------------------------------------------|
----------3----6-------------------------------------------------------|
---5>(7)-----------5>(8)==========>5--(7)>5>3-----5--5>(7)vvvvvvvv>5---|
-----------------------------------------------------------------------|
-----------------------------------------------------------------------|
-----------------------------------------------------------------------|


Keyboard solo;

Gm					 Cm
------------------------------------------------------------|
---------53-------------------53-------------------108---|
------------------------------------------------------------|
---3/5---53--------------3/5--53-------------8/10--108---|
---------------------------------------5--------------------|
------------------------------------6-----------------------|


Gm		   Eb	   D	 Eb		D    Gm    Cm   Gm    D7#9
----------------------------------------------------------------------------|
--------53-----8------7------8------11---7---------------------------6----|
-----------------------------------------------------------------------5----|
---3/5--53-----8------7------8------11---7---------------------------4----|
-----------------------------------------------------------------------5----|
----------------------------------------------------------------------------|


solo

------15------------15---18>15-------------------3----------------0----------|
--15-------18>(20)--------------18>(20)------3------6-----------------------|
---------------------------------------------------------5>(7)----5>3--5--3--|
-----------------------------------------------------------------------------|
-----------------------------------------------------------------------------|
-----------------------------------------------------------------------------|


-----------------------------------------------------------18-----------------|
--------------------------------------11----11-----18>(20)-----18>(20)vvvv18-|
----------15>(17)>15>(19)>15----11/12----12-----------------------------------|
--5vvvv-----------------------------------------------------------------------|
------------------------------------------------------------------------------|
------------------------------------------------------------------------------|


-------6>5--------------------------------------------------------------|
------------6/8--------------------------------------------------------|
--6/7--------------(17)>15>(19)>15--------15--17>(18)>17>15--17--17>15--|
------------------------------------15/17-------------------------------|
------------------------------------------------------------------------|
------------------------------------------------------------------------|


-------------------------------3----------------------------------------------|
----------------------------------6--------------------3----------------------|
--17--17--17>15--17>(19)vvvv--------5>(7)---5--3>(5)--3---3---5----32-------|
---------------------------------------------------------5-------5------3-----|
--------------------------------------------------------------------------3/5-|
------------------------------------------------------------------------------|


-----------------------------------------------15-------------------------|
-------------------------------------18>(20)--------18>(20)-----18>(20)---|
--------3---------15>(17)>15>(19)>0--------------------------0------------|
-----------3>5------------------------------------------------------------|
--4/5---------------------------------------------------------------------|
--------------------------------------------------------------------------|


--15--18>15--18>(20)vvv-----18>(20)>18>15--18---------------------------------|
-----------------------------------------------18>(20)------------------------|
-------------------------0-----------------------------------15--17--17>(19)--|
---------------------------------------------------------17-------------------|
------------------------------------------------------------------------------|
------------------------------------------------------------------------------|


--------------------------------------------------------------------|
--------------------------------------------------------------------|
--17>(20)---17>(20)>17---------------------------------14--15vvvv--|
-------------------------16vvvv---16>17>1614--16--17--16--17vvvv--|
--------------------------------------------------------------------|
--------------------------------------------------------------------|

-----3-----------------------------------------------------------|
--3----6---------------------------------------------------------|
----------5>(7)vvvv>5---(8)>5>3---5--3----3----------------------|
----------------------------------------5----5-------------------|
------------------------------------------------53--1--3/5--5--|
-----------------------------------------------------------------|


legend;
-------


legato                        ---7>6>7--------|
bend(and release)                --7>(8)>7----|
hold bend                    --7>(8)===>7-----|
vibrato						--7vvvvvvvv-
slide						---7/8------

transcribed by Dave Whitehill
for Guitar World


Текст, аккорды и табулатура для песни "Shine On You Crazy Diamond Part 2", исполняет "Pink Floyd".
Используемые в песне аккорды можно найти в разделе Как брать аккорды. Аккорды для шестиструнной гитары. Другие песни можно найти на нашем сайте, воспользовавшись алфавитным указателем вверху страницы.


 
Ошибка в тексте? Выделите ошибку и нажмите Ctrl+Enter