Вступление (бас):
---------------------------------------       X 9
---------------------------------------   
2---2---2---3---2----2---0---0---0---2-
---------------------------------------
---------------------------------------


1.

Little by little the night turns around
--------------------------------------- 
--------------------------------------- 
2---2---2---3---2----2---0---0---0---2- 
--------------------------------------- 
--------------------------------------- 

--------------------------------------- 
--------------------------------------- 
2---2---2---3---2----2---0---0---0---2-
--------------------------------------- 
--------------------------------------- 

Counting the leaves which tremble at dawn
--------------------------------------- 
--------------------------------------- 
2---2---2---3---2----2---0---0---0---2- 
---------------------------------------
--------------------------------------- 

--------------------------------------- 
--------------------------------------- 
2---2---2---3---2----2---0---0---0---2-
--------------------------------------- 
--------------------------------------- 


Lotus´s lean on each other in yearning
--------------------------------------- 
--------------------------------------- 
2---2---2---3---2----2---0---0---0---2- 
--------------------------------------- 
--------------------------------------- 

--------------------------------------- 
--------------------------------------- 
2---2---2---3---2----2---0---0---0---2-
--------------------------------------- 
--------------------------------------- 


Under the hills the swallow is resting
--------------------------------------- 
--------------------------------------- 
2---2---2---3---2----2---0---0---0---2- 
--------------------------------------- 
---------------------------------------

--------------------------------------- 
--------------------------------------- 
2---2---2---3---2----2---0---0---0---2-
--------------------------------------- 
--------------------------------------- 


Aaaaaah......                           
--------------------------------------- 
------------2---0----0----------------- 
2---2---2----------------3---3---3---2- 
--------------------------------------- 
--------------------------------------- 


Aaaaaah......                           
--------------------------------------- 
------------2---0----0----------------- 
2---2---2----------------3---3---3---2- 
--------------------------------------- 
--------------------------------------- 



Set the controls for the heart of the sun
---------------------------------------
--------------------------------------- 
2---2---2---3---2----2---0---0---0---2- 
--------------------------------------- 
--------------------------------------- 

---------------------------------------   X 2
--------------------------------------- 
2---2---2---3---2----2---0---0---0---2- 
--------------------------------------- 
--------------------------------------- 






2.	Over the mountain watching the watcher
	Breaking the darkness, waking the grapewine
	Morning to love is born in the shadow
	Love is the shadow that ripens the vine

	Set the controls for the heart of the sun


3.	Witness the man who raves at the wall
	Making the shape of his questions to heaven
	Whether the sun will fall in the evening?
	Will he remember the lesson of giving?

	Set the controls for the heart of the sun


Текст, аккорды и табулатура для песни "Set The Controls For The Heart Of The Sun", исполняет "Pink Floyd".
Используемые в песне аккорды можно найти в разделе Как брать аккорды. Аккорды для шестиструнной гитары. Другие песни можно найти на нашем сайте, воспользовавшись алфавитным указателем вверху страницы.


Слушать онлайн Set the Controls for the Heart of the Sun


Think FloydSet the Controls for the Heart of the Sun на Яндекс.Музыке


 
Ошибка в тексте? Выделите ошибку и нажмите Ctrl+Enter