-------------------------------------------------------------------------------
     Money - Pink Floyd
-------------------------------------------------------------------------------

Tabbed By : Zach Smith
e-mail: [email protected]

Tuning:EADG.  When playing the amp turn the bass knob all the way up for added bass effect.

G|-------4-------------------|                      
D|-----------4--------------0|   
A|---2----------2--------2---|   Repeat 4 times
E|------------------0-2------|

G|-----------------------------|
D|-----0----------------------0|
A|2---------2-------0----2-----|
E|--------------2--------------|

Repeat top one more time

G|--------------------------------------------------------------------|
D|--4-------4-------------------4---3---2---------------------0-------|
A|--------------4-------0---4---------------2---------0---2-------2---|
E|------------------2---------------------------0--3------------------|

Reapeat whole thing 2 times


sax solo
G|-----4----------------------|
D|---------4------------------|
A|-2-----------2---------0---2|     Repeat 8 times
E|-----------------0-2--------|

G|----9--------------------------|
D|--------9----------------------|
A|-7----------7------------7---10|    Repeat 4 times
E|----------------7---10---------|

G|-----4------------------------|
D|---------4-------------------0|
A|-2-----------2-------0---2----|     Repeat 4 times
E|-----------------2------------|

G|-------------------------------|----------------------------|
D|-4----4-------------------4---3|--2-----------------------0-|
A|----------4-------0---4--------|------2-----------0---2-----|
E|--------------2----------------|----------0---3-------------|

G|------------------------|-----------------------|
D|------------------------|-----------------------|
A|-2-2-2-2-2-2-2-2-2-2-2-2|2-2-2-2-2-2-2-2-2-2-2-2|
E|------------------------|-----------------------|

G|------------------|---
D|-----0------------|---
A|-2-------4---3---0|2--    Repeat 8 times
E|------------------|---

G|--------------|
D|-2---1---0----|
A|-------------4|       Reapeat 4 times
E|--------------|

then back to the one that is up two bars
G|------------------|
D|-----0------------|
A|-2-------4---3---0|   Repeat 4 times
E|------------------|

G|--------------|-----------------|--4---2---0----|---------------|
D|-----4---3---2|--------4---3---2|--------------4|--2---0--------|
A|--------------|--2-2------------|---------------|----------4---3|
E|-2------------|-----------------|---------------|---------------|

G|------------------|
D|-----0------------|
A|-2-------4---3---0|   Repeat 4 times then go back to begining of song.
E|------------------|

If you have any questions please contact me at  [email protected]


Текст, аккорды и табулатура для песни "Money", исполняет "Pink Floyd".
Используемые в песне аккорды можно найти в разделе Как брать аккорды. Аккорды для шестиструнной гитары. Другие песни можно найти на нашем сайте, воспользовавшись алфавитным указателем вверху страницы.


Слушать онлайн Money


The Australian Pink Floyd ShowMoney на Яндекс.Музыке


 
Ошибка в тексте? Выделите ошибку и нажмите Ctrl+Enter