capo on third fret
 
 -----------0--------0--------------0--------0--------------2--------2----
 --4-----------------------4-----------------------2-----------3----------
 --------6-----6--------6--------6-----6--------6--------4--------4-----4-
 -----6-----------6-----------6-----------6-----------4-------------------
 -------------------------------------------------------------------------
 -------------------------------------------------------------------------
 	      v-- stop here second time.
 -----------2--------2----
 --2-----------3----------	(3)-2vvvvvv-----0--2-2>(3)-2vvvvvv-----0-0-2-2>(3)-2vvvvvvv---
 
 play part B 8 times
 
 
 -----------------------------------------------------------------------------
 -3>(5)=======(5)vvvvvvvvvvvvv(5)=====>3--3>(5)==(5)vvvvvvvvvvvvvvv(5)====>3--
 -----------------------------------------------------------------------------
 -----------------------------------------------------------------------------
 -----------------------------------------------------------------------------
 -----------------------------------------------------------------------------
 
 -----------------------------------------------------------------------------
 -3>(5)vvvvvvvvvvvvvvvvvvvv>(4)>(5)>===(4)>(5)>===(4)>(5)------3>(5)vvvvvvvv--
 -----------------------------------------------------------------------------
 -----------------------------------------------------------------------------
 -----------------------------------------------------------------------------
 -----------------------------------------------------------------------------
 
 -------------------------------------------------------------------------------
 --3/7vvvvvvvvvv--5-7-7>(8)>7vvvvvvvvv---5-7-7>(8)>7vvvvvvvv---5-7-7>(8)>7vvvv--
 -------------------------------------------------------------------------------
 -------------------------------------------------------------------------------
 -------------------------------------------------------------------------------
 -------------------------------------------------------------------------------
 
 ---------------5--7-5-7--7>(8)vvvvvvvvvv(8)==>7>(8)--7>(8)vvvvvvvv-7---
 --5vvvvvv-7-8----------------------------------------------------------
 -----------------------------------------------------------------------
 -----------------------------------------------------------------------
 -----------------------------------------------------------------------
 -----------------------------------------------------------------------
 
 
 --7>(8)vvvvvvv(8)===>7--7>(8)vvvvvvvvv----------12-----------------------
 ----------------------------------------15>(17)-----15>(17)vvvvvvv>(16)--
 -------------------------------------------------------------------------
 -------------------------------------------------------------------------
 -------------------------------------------------------------------------
 -------------------------------------------------------------------------
 
 ------------12---15-----------12--15-------------------------
 ---15>(17)-----------15>(17)----------15>(17)vvvvvvvvvvvvvv--
 -------------------------------------------------------------
 -------------------------------------------------------------
 -------------------------------------------------------------
 -------------------------------------------------------------
 
 ----------------------------------12------------------------------------
 --15>(17)======>15>12----------12-----15>(17)=====>(16)>(17)=======>15--
 -----------------------14>(16)------------------------------------------
 ------------------------------------------------------------------------
 ------------------------------------------------------------------------
 ------------------------------------------------------------------------
 
 ----------14-15/17-17/19--17--19--19>(20)========(20)>19---19>(20)-17>19--
 --15>(17)-----------------------------------------------------------------
 --------------------------------------------------------------------------
 --------------------------------------------------------------------------
 --------------------------------------------------------------------------
 --------------------------------------------------------------------------
 							  v-- slow dive w/ bar
 --19>17--20--19>(20)==>19--19>(20)==========(20)==>19>17--19--------------
 --------------------------------------------------------------------------
 --------------------------------------------------------------------------
 --------------------------------------------------------------------------
 --------------------------------------------------------------------------
 --------------------------------------------------------------------------
 
 
 "But it was ...."
 w/ capo
 -------------------------------------------------------------------------
 --2-----2--4----4---5----4--------2--2--2--2--2--2---2--2--2-2--2--2---4-
 --2-----2--4----4---4----4--------2--2--2--2--2--2---2--2--2-2--2--2---4-
 --2-----2--4----4---6----4--------2--2--2--2--2--2---2--2--2-2--2--2---4-
 -------------------------------------------------------------------------
 -------------------------------------------------------------------------
 
 -------------------------------------------------------------------------
 --4---5--4--2--2--2-2--2--2--2-2--2--2--4--4----5----4---2--2--2-2--2--2-
 --4---4--4--2--2--2-2--2--2--2-2--2--2--4--4----4----4---2--2--2-2--2--2-
 --4---6--4--2--2--2-2--2--2--2-2--2--2--4--4----6----4---2--2--2-2--2--2-
 -------------------------------------------------------------------------
 -------------------------------------------------------------------------
 
 		...... brain "
 -------------------------------
 --2--2--2-2--2--2---4--4--4--4-
 --2--2--2-2--2--2---4--4--4--4-
 --2--2--2-2--2--2---4--4--4--4-
 -------------------------------
 -------------------------------
 
 
 fretless bass solo;
 w/capo						|------------part A-------
 -----------0--------0--------------0--------0--------------2--------2-----
 --4-----------------------4-----------------------2-----------3-----------
 --------6-----6--------6--------6-----6--------6--------4--------4-----4--
 -----6-----------6-----------6-----------6-----------4--------------------
 --------------------------------------------------------------------------
 --------------------------------------------------------------------------
 
 -----part A---------------|
 -----------2--------2----
 --2-----------3--------0-	 regular strum, one @
                           D5   G	D	C	 dist. gutiar plays
 don`t tell me there no hope at all---------		 root 5th of these 
 
 Bm


Текст, аккорды и табулатура для песни "Hey You (tab)", исполняет "Pink Floyd".
Используемые в песне аккорды можно найти в разделе Как брать аккорды. Аккорды для шестиструнной гитары. Другие песни можно найти на нашем сайте, воспользовавшись алфавитным указателем вверху страницы.


 
Ошибка в тексте? Выделите ошибку и нажмите Ctrl+Enter