Вступление и перебор подобрал сам, а аккорды и текст взят с сайта Пилота.

 Вступление
       Em      D    C        E*    Am     D6sus4add9
 e-----------0-----------0---12-----12-----|
 H|------0-------3-----1-------1----1---12--12----12---|
 G|--------0---2-----0-------0-----2---12-----12----12-| 2x
 D|--0p2-----0--------------------2--------------------|
 A-----3-------2-----0---------------------|
 E-----------------------------------------|

 Таким перебором играются все куплеты. Припев играется четким боем.

       Em      D    C       E*       Am           Hm
 e-----------0----------------0---0-------2---2-|
 H|------0-------3-----1-------1--------1---1-------3---3---|
 G|--------0---2-----0-------0--------2-----------4---------|
 D|--0p2-----0----------------------2-----------4-----------|
 A-----3-------2-----0--------------------------|
 E----------------------------------------------|


   Em           D    C      E*      Am    Hm
Здесь ветер гоняет сны по унылым местам,
  Em            D         C      E*      Am          Hm
Здесь солнце встает раз в год и ползет умирать к прибрежным камням.
  Em     D      C         E*  Am  Hm
Пусть кричат внизу сотни голосов,
  Em              C     
Здесь трава выше всех крестов
   E*           F#m H        Am
И сильнее всех слов.  Сильнее слов...

   Am       H7
Вспомни черное небо,
     Am                H7
Растущие звезды, пустые глаза...
      Em           Am7
...И нет дела до всех.
     Em      Am7
Нет дела до всех!  (2р.)

Но по красной реке далеко не уплыть.
Не увидеть всего, не понять не забыть.
Тает странный смех за моей спиной.
Вот хозяин снов. Он пришел. Пришел за мной...

Вспомни черное небо,
И сквозь океан я слышу только свое,
И нет дела до всех...
Нет дела до всех!  (2р.)

                                
Не пугайся окна, ведь оно лишь одно.
Если хочешь, нырни с головой на дно,
Но и там тебя поведет конвой.
А когда поймешь, приходи...
...Посмеемся с тобой! И...

...Вспомним черное небо!

 E* - e|-0
      H|-1       
      G|-0 
      D|-0
      A|-2
      E|-0


Текст, аккорды и табулатура для песни "Нет дела до всех", исполняет "Пилот".
Используемые в песне аккорды можно найти в разделе Как брать аккорды. Аккорды для шестиструнной гитары. Другие песни можно найти на нашем сайте, воспользовавшись алфавитным указателем вверху страницы.


 
Ошибка в тексте? Выделите ошибку и нажмите Ctrl+Enter