Em Am C H7

      Em                 Am 
Не родная отчизна, не родная земля
    C             H7  
Вавилонские реки, чуждые планы
      Em                 Am 
После каждой девятки все снова с нуля
    C             H7
Все снова с нуля, но не с начала
  Em        Am         C          H7   Em Am C H7
Извечная не родина, не родина, не родина  
  Em        Am         C          H7   Em Am C H7
Извечная не родина, не родина, не родина 

Братские силы на передовых
Только слезы и песни успокоят немного
Только песен печальных унылый мотив
 луна - это солнце, кривая икона

Извечная не родина, не родина, не родина
Извечная не родина, не родина, не родина

Не абсолютен приют бытия
Невыносима корней невесомость
Чуждые цели, чужая игра
Архистратег рукопашного боя

Извечная не родина, не родина, не родина
Извечная не родина, не родина, не родина

Неродное отечество,устои и лежбища
Стойбища, пастбища, кладбища, стрельбища
Остановка обстоятельства и окружения
Египет, Израиль, Россия, Америка

Извечная не родина, не родина, не родина
Извечная не родина, не родина, не родина

Соло:

E|----------------|-----------------|
H|----1-----------|-----------------|
G|-------4--2-----|--0-----0--2--0--|
D|--2----------2--|-----2-----------|
A|----------------|-----------------|
E|----------------|-----------------|

|-----------------|-----------------|
|-----1-----------|-----------------|
|--0-----4--2--0--|--2--0--2--4--2--|
|-----------------|-----------------|
|-----------------|-----------------|
|-----------------|-----------------|


Текст, аккорды и табулатура для песни "Неродина", исполняет "Пилот".
Используемые в песне аккорды можно найти в разделе Как брать аккорды. Аккорды для шестиструнной гитары. Другие песни можно найти на нашем сайте, воспользовавшись алфавитным указателем вверху страницы.


 
Ошибка в тексте? Выделите ошибку и нажмите Ctrl+Enter