Музыка и слова - Илья Черт.

Вступление:

   Hm                        \
D|----------4-----0--------|  \  2
A|-2-----2-----------0-(0)-|  / раза
E|-------------------------| /

   G                         F#
D|-------------------------|-------------------------|
A|----------5-----0--------|----------4-----0--------|
E|-3-----3-----------0-(0)-|-2-----2-----------0-----|

   Hm
D|----------4-----0--------|-------4--5-----4--0-----|
A|-2-----2-----------0-(0)-|-2-------------------(0)-|
E|-------------------------|-------------------------|

   G                         F#
D|-------------------------|-------------------------|
A|----------5-----0--------|----------4-----0----(0)-|
E|-3-----3-----------0-(0)-|-2-----2-----------0-----|

   Hm                        \
D|----------4-----0--------|  \  2
A|-2-----2-----------0-(0)-|  / раза
E|-------------------------| /

   G                         F#
D|-------------------------|-------------------------|
A|----------5-----0--------|----------4-----0--------|
E|-3-----3-----------0-(0)-|-2-----2-----------0-----|

   Hm
D|----------4-----0--------|-------4--5-----4--0-----|
A|-2-----2-----------0-(0)-|-2-------------------(0)-|
E|-------------------------|-------------------------|

   G                         F#
D|-------------------------|-------4--5--------------|
A|----------5-----0--------|-------------------------|
E|-3-----3-----------0-(0)-|-2-----------------------|

Hm                         C   F#
  Мимо окон чужих сам не свой,
Hm                            C   F#
  Ветер в шею, по льду иду домой.
Hm                     C                 F#
  Подскользнусь, упаду, под деревьями оставлю
Hm       G
  Свой злой смех,
Em             F#         Hm          G
  Все давно хотели, чтобы я ушел от всех.
Em            F#      Hm               E
  Вот и прилетела с красным пером стрела,
C#m              F#            Hm
  Ткнула в грудь, не промазала.

  Знаю, сила моя всегда со мной,
  В кармане ключ от двери золотой.
  Напьюсь! Сяду в вагон,
  И поедет поезд далеко,
  Где кто-то также смотрит
  На мир в свое окно,
  И не может вспомнить
  Насколько память зла!
  Все забрала и на ходу спрыгнула.

Проигрыш:

Hm | G  | Em | F#  > 4 раза

  Собери в мешок все что есть.
  Можем на дорожку присесть.
  7 часов утра - все спят,
  Мы с тобой уходим,
  В спину нам свистят
  И кидают камни.
  Забудут и простят,
  Заколотят двери
  И вырастет трава,
  Через час скошенная.

Кода:

Hm | G  | Em | F#  > 4 раза

   Hm                        \
D|----------4-----0--------|  \  2                     \
A|-2-----2-----------0-(0)-|  / раза                    \
E|-------------------------| /                           \
                                                          \  2
   G                         F#                           / раза
D|-------------------------|-------------------------|   /
A|----------5-----0--------|----------4-----0--------|  /
E|-3-----3-----------0-(0)-|-2-----2-----------0-----| /

   Hm
D|----------4-----0--------|-------4--5-----4--0-----| \
A|-2-----2-----------0-(0)-|-2-------------------(0)-|  \
E|-------------------------|-------------------------|   \
                                                          \  2
   G                         F#                           / раза
D|-------------------------|-------------------------|   /
A|----------5-----0--------|----------4-----0----(0)-|  /
E|-3-----3-----------0-(0)-|-2-----2-----------0-----| /

Hm


Текст, аккорды и табулатура для песни "7 часов утра", исполняет "Пилот".
Используемые в песне аккорды можно найти в разделе Как брать аккорды. Аккорды для шестиструнной гитары. Другие песни можно найти на нашем сайте, воспользовавшись алфавитным указателем вверху страницы.


 
Ошибка в тексте? Выделите ошибку и нажмите Ctrl+Enter