***********************************
*Band: the pillows    		  *
*Song: Vain Dog (In Rain Drop)    *
*Album: Smile 			  *
*Release: 2001		          *
***********************************
--------------------------------------------
|Tabbed by: NardDude [[email protected]]|
|Date: 2003-06-22                          |
--------------------------------------------

Symbols:

h - hammer on
p - pull off
: - let ring

[INTRO]

Guitar 1 (Played 3 times, the first time without Guitar 2)
e --------------------------------|--------------------------------|
b --------------------------------|--------------------------------|
g -------------------------10-----|--------------------------------|
d ---9h11---------------------9---|---9h11------------------9--10--|
a -8------10p8h10-11-10h11--------|-8------10p8h10-11-10h11--------|
e --------------------------------|--------------------------------|

Guitar 2
e --------------------------------|--------------------------------|
b --------------------------------|--------------------------------|
g -6--6-6-6--------------4-4--4---|-6--6-6-6-----------------------|
d -6--6-6-6--3-3--6-6-6--4-4--4---|-6--6-6-6--3-3--6-6-6-6-6--6----|
a -4--4-4-4--3-3--6-6-6--2-2--2---|-4--4-4-4--3-3--6-6-6-6-6--6----|
e -----------1-1--4-4-4-----------|-----------1-1--4-4-4-4-4--4----|


[VERSE 1]

e ----------------------------------|----------------------------------|
b ----------------------------------|----------------------------------|
g -3-3-3-3-3-3-3-3--6-6-6-6-6-6-6-6-|----------------------------------|
d -3-3-3-3-3-3-3-3--6-6-6-6-6-6-6-6-|-6-6-6-6-6-6-6-6--3-3-3-3-3-3-3-3-|
a -1-1-1-1-1-1-1-1--4-4-4-4-4-4-4-4-|-6-6-6-6-6-6-6-6--3-3-3-3-3-3-3-3-|
e ----------------------------------|-4-4-4-4-4-4-4-4--1-1-1-1-1-1-1-1-|

e ----------------------------------|----------------------------------|
b ----------------------------------|----------------------------------|
g -3-3-3-3-3-3-3-3--6-6-6-6-6-6-6-6-|-8-8-8-8-8-8-8-8--8-8-8-8---------|
d -3-3-3-3-3-3-3-3--6-6-6-6-6-6-6-6-|-8-8-8-8-8-8-8-8--8-8-8-8-----6-6-|
a -1-1-1-1-1-1-1-1--4-4-4-4-4-4-4-4-|-6-6-6-6-6-6-6-6--6-6-6-6-----6-6-|
e ----------------------------------|------------------------------4-4-|

e ----------------------------------|----------------------------------|
b ----------------------------------|----------------------------------|
g -3-3-3-3-3-3-3-3--6-6-6-6-6-6-6-6-|----------------------------------|
d -3-3-3-3-3-3-3-3--6-6-6-6-6-6-6-6-|-6-6-6-6-6-6-6-6--3-3-3-3-3-3-3-3-|
a -1-1-1-1-1-1-1-1--4-4-4-4-4-4-4-4-|-6-6-6-6-6-6-6-6--3-3-3-3-3-3-3-3-|
e ----------------------------------|-4-4-4-4-4-4-4-4--1-1-1-1-1-1-1-1-|

e ----------------------------------|----------------------------------|
b ----------------------------------|----------------------------------|
g -3-3-3-3-3-3-3-3--6-6-6-6-6-6-6-6-|-8-8-8-8-8-8-8-8--8-8-8-8-----6-6-|
d -3-3-3-3-3-3-3-3--6-6-6-6-6-6-6-6-|-8-8-8-8-8-8-8-8--8-8-8-8-----6-6-|
a -1-1-1-1-1-1-1-1--4-4-4-4-4-4-4-4-|-6-6-6-6-6-6-6-6--6-6-6-6-----4-4-|
e ----------------------------------|----------------------------------|


[CHORUS]

Guitar 1
e --------------------------------|--------------------------------|
b --------------------------------|--------------------------------|
g -------------------------10-----|--------------------------------|
d ---9h11---------------------9---|---9h11------------------9--10--| X2
a -8------10p8h10-11-10h11--------|-8------10p8h10-11-10h11--------|
e --------------------------------|--------------------------------|

Guitar 2
e --------------------------------|--------------------------------|
b --------------------------------|--------------------------------|
g -6--6-6-6--------------4-4--4---|-6--6-6-6-----------------------|
d -6--6-6-6--3-3--6-6-6--4-4--4---|-6--6-6-6--3-3--6-6-6-6-6--6----| X2
a -4--4-4-4--3-3--6-6-6--2-2--2---|-4--4-4-4--3-3--6-6-6-6-6--6----|
e -----------1-1--4-4-4-----------|-----------1-1--4-4-4-4-4--4----|

REPEAT [CHORUS]

[VERSE 2]
e ----------------------------------|----------------------------------|
b ----------------------------------|----------------------------------|
g -3-3-3-3-3-3-3-3--6-6-6-6-6-6-6-6-|----------------------------------|
d -3-3-3-3-3-3-3-3--6-6-6-6-6-6-6-6-|-6-6-6-6-6-6-6-6--3-3-3-3-3-3-3-3-|
a -1-1-1-1-1-1-1-1--4-4-4-4-4-4-4-4-|-6-6-6-6-6-6-6-6--3-3-3-3-3-3-3-3-|
e ----------------------------------|-4-4-4-4-4-4-4-4--1-1-1-1-1-1-1-1-|

e ----------------------------------|----------------------------------|
b ----------------------------------|----------------------------------|
g -3-3-3-3-3-3-3-3--6-6-6-6-6-6-6-6-|-8-8-8-8-8-8-8-8--8-8-8-8---------|
d -3-3-3-3-3-3-3-3--6-6-6-6-6-6-6-6-|-8-8-8-8-8-8-8-8--8-8-8-8-----6-6-|
a -1-1-1-1-1-1-1-1--4-4-4-4-4-4-4-4-|-6-6-6-6-6-6-6-6--6-6-6-6-----6-6-|
e ----------------------------------|------------------------------4-4-|

e ----------------------------------|----------------------------------|
b ----------------------------------|----------------------------------|
g -3-3-3-3-3-3-3-3--6-6-6-6-6-6-6-6-|----------------------------------|
d -3-3-3-3-3-3-3-3--6-6-6-6-6-6-6-6-|-6-6-6-6-6-6-6-6--3-3-3-3-3-3-3-3-|
a -1-1-1-1-1-1-1-1--4-4-4-4-4-4-4-4-|-6-6-6-6-6-6-6-6--3-3-3-3-3-3-3-3-|
e ----------------------------------|-4-4-4-4-4-4-4-4--1-1-1-1-1-1-1-1-|

e ----------------------------------|----------------------------------|
b ----------------------------------|----------------------------------|
g -3-3-3-3-3-3-3-3--6-6-6-6-6-6-6-6-|-8-8-8-8-8-8-8-8--8-8-8-8-----6-6-|
d -3-3-3-3-3-3-3-3--6-6-6-6-6-6-6-6-|-8-8-8-8-8-8-8-8--8-8-8-8-----6-6-|
a -1-1-1-1-1-1-1-1--4-4-4-4-4-4-4-4-|-6-6-6-6-6-6-6-6--6-6-6-6-----4-4-|
e ----------------------------------|----------------------------------|


PLAY [CHORUS]


[CHORUS VARIATION]

Guitar 1
e --------------------------------|--------------------------------|
b --------------------------------|--------------------------------|
g -------------------------10-----|--------------------------------|
d ---9h11---------------------9---|---9h11------------------9--10--|
a -8------10p8h10-11-10h11--------|-8------10p8h10-11-10h11--------|
e --------------------------------|--------------------------------|

Guitar 2
e --------------------------------|--------------------------------|
b --------------------------------|--------------------------------|
g -6---------------------4-4--4---|-6--6-6-6-----------------------|
d -6---------3-3--6-6-6--4-4--4---|-6--6-6-6--3-3--6-6-6-6-6--6----|
a -4---------3-3--6-6-6--2-2--2---|-4--4-4-4--3-3--6-6-6-6-6--6----|
e -----------1-1--4-4-4-----------|-----------1-1--4-4-4-4-4--4----|

Guitar 1
e --------------------------------|--------------------------------|
b --------------------------------|--------------------------------|
g -------------------------10-----|--------------------------------|
d ---9h11---------------------9---|---9h11------------------9--10--|
a -8------10p8h10-11-10h11--------|-8------10p8h10-11-10h11--------|
e --------------------------------|--------------------------------|

Guitar 2
e --------------------------------|--------------------------------|
b --------------------------------|--------------------------------|
g -6--6-6-6--------------4-4--4---|-6--6-6-6-----------------------|
d -6--6-6-6--3-3--6-6-6--4-4--4---|-6--6-6-6--3-3--6-6-6-6-6--6----|
a -4--4-4-4--3-3--6-6-6--2-2--2---|-4--4-4-4--3-3--6-6-6-6-6--6----|
e -----------1-1--4-4-4-----------|-----------1-1--4-4-4-4-4--4----|

[OUTRO 1]

Guitar 1
e --------------------------------|--------------------------------|
b --------------------------------|--------------------------------|
g -------------------------10-----|--------------------------------|
d ---9h11---------------------9---|---9h11------------------9--10--|
a -8------10p8h10-11-10h11--------|-8------10p8h10-11-10h11--------|
e --------------------------------|--------------------------------|

Guitar 2
e ---------------------------------|----------------------------------|
b ---------------------------------|----------------------------------|
g -6-6-6-6-6-6-6-6-8-8-8-8-8-8-8-8-|-10-10-10-10-10-10-10-10-10-10-10-|
d -6-6-6-6-6-6-6-6-8-8-8-8-8-8-8-8-|-10-10-10-10-10-10-10-10-10-10-10-|
a -4-4-4-4-4-4-4-4-6-6-6-6-6-6-6-6-|-8--8--8--8--8--8--8--8--8--8--8--|
e ---------------------------------|----------------------------------|

e ---------------------------------|
b ---------------------------------|
g -8-8-8-8-8-8-8-8-----------------|
d -8-8-8-8-8-8-8-8-----------------|
a -6-6-6-6-6-6-6-6-----------------|
e ---------------------------------|

Guitar 1
e --------------------------------|--------------------------------|
b --------------------------------|--------------------------------|
g -------------------------10-----|--------------------------------|
d ---9h11---------------------9---|---9h11------------------9--10--|
a -8------10p8h10-11-10h11--------|-8------10p8h10-11-10h11--------|
e --------------------------------|--------------------------------|

Guitar 2
e ---------------------------------|----------------------------------|
b ---------------------------------|----------------------------------|
g -6-6-6-6-6-6-6-6-8-8-8-8-8-8-8-8-|-10-10-10-10-10-10-10-10-10-10-10-|
d -6-6-6-6-6-6-6-6-8-8-8-8-8-8-8-8-|-10-10-10-10-10-10-10-10-10-10-10-|
a -4-4-4-4-4-4-4-4-6-6-6-6-6-6-6-6-|-8--8--8--8--8--8--8--8--8--8--8--|
e ---------------------------------|----------------------------------|

e ----------------------------------|
b ----------------------------------|
g -13-13-13-13-13-13-13-13----------|
d -13-13-13-13-13-13-13-13----------|
a -11-11-11-11-11-11-11-11----------|
e ----------------------------------|


PLAY [CHORUS]


[OUTRO 2]

Guitar 1
e --------------------------------|--------------------------------|
b --------------------------------|--------------------------------|
g -------------------------10-----|--------------------------------|
d ---9h11---------------------9---|---9h11------------------9--10--|
a -8------10p8h10-11-10h11--------|-8------10p8h10-11-10h11--------|
e --------------------------------|--------------------------------|

Guitar 2
e ---------------------------------|----------------------------------|
b ---------------------------------|----------------------------------|
g -6-6-6-6-6-6-6-6-8-8-8-8-8-8-8-8-|-10-10-10-10-10-10-10-10-10-10-10-|
d -6-6-6-6-6-6-6-6-8-8-8-8-8-8-8-8-|-10-10-10-10-10-10-10-10-10-10-10-|
a -4-4-4-4-4-4-4-4-6-6-6-6-6-6-6-6-|-8--8--8--8--8--8--8--8--8--8--8--|
e ---------------------------------|----------------------------------|

e ---------------------------------|
b ---------------------------------|
g -8-8-8-8-8-8-8-8-----------------|
d -8-8-8-8-8-8-8-8-----------------|
a -6-6-6-6-6-6-6-6-----------------|
e ---------------------------------|

Guitar 1
e --------------------------------|--------------------------------|
b --------------------------------|--------------------------------|
g -------------------------10-----|--------------------------------|
d ---9h11---------------------9---|---9h11------------------9--10--|
a -8------10p8h10-11-10h11--------|-8------10p8h10-11-10h11--------|
e --------------------------------|--------------------------------|

Guitar 2
e ---------------------------------|----------------------------------|
b ---------------------------------|----------------------------------|
g -6-6-6-6-6-6-6-6-8-8-8-8-8-8-8-8-|-10-10-10-10-10-10-10-10-10-10-10-|
d -6-6-6-6-6-6-6-6-8-8-8-8-8-8-8-8-|-10-10-10-10-10-10-10-10-10-10-10-|
a -4-4-4-4-4-4-4-4-6-6-6-6-6-6-6-6-|-8--8--8--8--8--8--8--8--8--8--8--|
e ---------------------------------|----------------------------------|

e ----------------------------------|
b ----------------------------------|
g -13:------------------------------|
d -13:------------------------------|
a -11:------------------------------|
e ----------------------------------|


Текст, аккорды и табулатура для песни "Vain Dog In Rain Drop", исполняет "Pillows".
Используемые в песне аккорды можно найти в разделе Как брать аккорды. Аккорды для шестиструнной гитары. Другие песни можно найти на нашем сайте, воспользовавшись алфавитным указателем вверху страницы.


 
Ошибка в тексте? Выделите ошибку и нажмите Ctrl+Enter