********************************
*Artist: the pillows           *
*Song: Ritalin 202             *
*Album: thank you, my twilight *
*Release: 2002                 *
********************************
--------------------------------------------
|Tabbed by: NardDude [[email protected]]|
|Date: 2003-04-19                          |
--------------------------------------------

This is a sweet yet simple song. It uses all power chords with distortion
giving it a very nice punk feeling. If there are any mistakes, please email
me so I can correct them! Thanks! ^_^

ROCK ON!

[Intro]
E|--------------------------------------------------------------------|
B|--------------------------------------------------------------------|
G|-----------------------------------4--4-4-4-4-4-4-4-4-4-4-4-4-4-4-4-|
D|-7-6-2--2-2-2-2-2-2-2-2-2-2-2--7-6-4--4-4-4-4-4-4-4-4-4-4-4-4-4-4-4-|
A|-7-6-2--2-2-2-2-2-2-2-2-2-2-2--7-6-2--2-2-2-2-2-2-2-2-2-2-2-2-2-2-2-|
E|-5-4-0--0-0-0-0-0-0-0-0-0-0-0--5-4----------------------------------|

[Verse]
E|--------------------------------------------------------------------|
B|--------------------------------------------------------------------|
G|---------------------------------4-4-4-4-4-4-4-6--6-6-6-6-6-6-6-----|
D|-7-7-7-7-7-7-7-2--2-2-2-2-2-2-2--4-4-4-4-4-4-4-6--6-6-6-6-6-6-6-----|
A|-7-7-7-7-7-7-7-2--2-2-2-2-2-2-2--2-2-2-2-2-2-2-4--4-4-4-4-4-4-4-----|
E|-5-5-5-5-5-5-5-0--0-0-0-0-0-0-0-------------------------------------|

E|--------------------------------------------------------------------|
B|--------------------------------------------------------------------|
G|---------------9--9-9-6--6-6-6--------------------------------------|
D|-7-7-7-7-9-9-9-9--9-9-6--6-6-6-7-7-7-7-7-6/9--9-9--7-6-2--2-2-2-----|
A|-7-7-7-7-9-9-9-7--7-7-4--4-4-4-7-7-7-7-7-6/9--9-9--7-6-2--2-2-2-----|
E|-5-5-5-5-7-7-7-----------------5-5-5-5-5-4/7--7-7--5-4-0--0-0-0-----|

E|-------------------------|
B|-------------------------|
G|-------------------------|
D|--7-6-2--2-2-2-2-2-2-2-2-|
A|--7-6-2--2-2-2-2-2-2-2-2-|
E|--5-4-0--0-0-0-0-0-0-0-0-|

*Repeat*

[Bridge]
E|----------------------------|
B|----------------------------|
G|----------------------------|
D|-7-7-7--6-6-6--4-4-4--2-2-2-| X3
A|-7-7-7--6-6-6--4-4-4--2-2-2-|
E|-5-5-5--4-4-4--2-2-2--0-0-0-|

E|--------------------------------------------------|
B|--------------------------------------------------|
G|-4-4-4-4-4-4-4-4-4-4-4-4-4-4-4-4--4-4---4-4---4-4-|
D|-4-4-4-4-4-4-4-4-4-4-4-4-4-4-4-4--4-4---4-4---4-4-|
A|-2-2-2-2-2-2-2-2-2-2-2-2-2-2-2-2--2-2---2-2---2-2-|
E|--------------------------------------------------|

*Repeat [Intro] 2 times*

[Verse]
E|--------------------------------------------------------------------|
B|--------------------------------------------------------------------|
G|---------------------------------4-4-4-4-4-4-4-6--6-6-6-6-6-6-6-----|
D|-7-7-7-7-7-7-7-2--2-2-2-2-2-2-2--4-4-4-4-4-4-4-6--6-6-6-6-6-6-6-----|
A|-7-7-7-7-7-7-7-2--2-2-2-2-2-2-2--2-2-2-2-2-2-2-4--4-4-4-4-4-4-4-----|
E|-5-5-5-5-5-5-5-0--0-0-0-0-0-0-0-------------------------------------|

E|--------------------------------------------------------------------|
B|--------------------------------------------------------------------|
G|---------------9--9-9-6--6-6-6--------------------------------------|
D|-7-7-7-7-9-9-9-9--9-9-6--6-6-6-7-7-7-7-7-6/9--9-9--7-6-2--2-2-2-----|
A|-7-7-7-7-9-9-9-7--7-7-4--4-4-4-7-7-7-7-7-6/9--9-9--7-6-2--2-2-2-----|
E|-5-5-5-5-7-7-7-----------------5-5-5-5-5-4/7--7-7--5-4-0--0-0-0-----|

E|-------------------------|
B|-------------------------|
G|-------------------------|
D|--7-6-2--2-2-2-2-2-2-2-2-|
A|--7-6-2--2-2-2-2-2-2-2-2-|
E|--5-4-0--0-0-0-0-0-0-0-0-|

*Repeat*

[Bridge]
E|----------------------------|
B|----------------------------|
G|----------------------------|
D|-7-7-7--6-6-6--4-4-4--2-2-2-| X3
A|-7-7-7--6-6-6--4-4-4--2-2-2-|
E|-5-5-5--4-4-4--2-2-2--0-0-0-|

E|--------------------------------------------------|
B|--------------------------------------------------|
G|-4-4-4-4-4-4-4-4-4-4-4-4-4-4-4-4--4-4---4-4---4-4-|
D|-4-4-4-4-4-4-4-4-4-4-4-4-4-4-4-4--4-4---4-4---4-4-|
A|-2-2-2-2-2-2-2-2-2-2-2-2-2-2-2-2--2-2---2-2---2-2-|
E|--------------------------------------------------|

[Solo]
E|--------------------------------------------------------------------|
B|--------------------------------------------------------------------|
G|--------------------------------------------------------------------|
D|---------------------------------7--7-6h7p6-------7b-9-7-6----------|
A|----------7----7-9-7--7------7-9------------9-7------------9-7---7--|
E|-0--7-8-9----9------------9---------------------9--------------9----|

E|----------------------------------12~-14--14-12~--------------------|
B|-------------------------9~--9-9--x---x---x--x----------------------|
G|---------------11~--9-11----------9~--11--11-9~---------------------|
D|--------------------------------------------------------------------|
A|-----7--------------------------------------------------------------|
E|-9-7----4-4--0------------------------------------------------------|

*Play [Verse] once during the solo*

[Outro]
E|--------------------------------------------------------------------|
B|--------------------------------------------------------------------|
G|-----------------9-9-9-9-9-9-9-9-----------------6-6-6-6-6-6-6-6----|
D|-7-7-7-7-7-7-7-7-9-9-9-9-9-9-9-9-9-9-9-9-9-9-9-9-6-6-6-6-6-6-6-6----|
A|-7-7-7-7-7-7-7-7-7-7-7-7-7-7-7-7-9-9-9-9-9-9-9-9-4-4-4-4-4-4-4-4----|
E|-5-5-5-5-5-5-5-5-----------------7-7-7-7-7-7-7-7--------------------|

E|--------------------------------------------------------------------|
B|--------------------------------------------------------------------|
G|----------9-9-9-6--6-x-x-x-x-x-x-x-x-x-x-x-x------------------------|
D|-7-7--9-9-9-9-9-6--6-x-x-x-x-x-x-x-x-x-x-x-x------------------------|
A|-7-7--9-9-7-7-7-4--4-x-x-x-x-x-x-x-x-x-x-x-x------------------------|
E|-5-5--7-7-----------------------------------------------------------|

E|--------------------------------------------------------------------|
B|--------------------------------------------------------------------|
G|--------------------------------------------------------------------|
D|-7-7-7-7-7-7-7-7-9-9-9-9-9-9-9-9-2-2-2-2-2-2-2-2--------------------|
A|-7-7-7-7-7-7-7-7-9-9-9-9-9-9-9-9-2-2-2-2-2-2-2-2----7-6-7---7-------|
E|-5-5-5-5-5-5-5-5-7-7-7-7-7-7-7-7-0-0-0-0-0-0-0-0----------9---9-7---|

[Bridge]
E|----------------------------|
B|----------------------------|
G|----------------------------|
D|-7-7-7--6-6-6--4-4-4--2-2-2-| X3
A|-7-7-7--6-6-6--4-4-4--2-2-2-|
E|-5-5-5--4-4-4--2-2-2--0-0-0-|

E|--------------------------------------------------|
B|--------------------------------------------------|
G|-4-4-4-4-4-4-4-4-4-4-4-4-4-4-4-4--4-4---4-4---4-4-|
D|-4-4-4-4-4-4-4-4-4-4-4-4-4-4-4-4--4-4---4-4---4-4-|
A|-2-2-2-2-2-2-2-2-2-2-2-2-2-2-2-2--2-2---2-2---2-2-|
E|--------------------------------------------------|

*Repeat [Intro] 2 times*

[End]
E|-------|
B|-------|
G|-------|
D|-7-6-2-| Hold
A|-7-6-2-|
E|-5-4-0-|


Текст, аккорды и табулатура для песни "Ritalin 202", исполняет "Pillows".
Используемые в песне аккорды можно найти в разделе Как брать аккорды. Аккорды для шестиструнной гитары. Другие песни можно найти на нашем сайте, воспользовавшись алфавитным указателем вверху страницы.


 
Ошибка в тексте? Выделите ошибку и нажмите Ctrl+Enter