#----------------------------------PLEASE NOTE---------------------------------#
#This file is the author's own work and represents their interpretation of the #
#song. You may only use this file for private study, scholarship, or research. #
#------------------------------------------------------------------------------#

MOON IS MINE
As recorded by The Pillows



Transcribed by Frolific

 
This song is probably one of my favorites from the earlier albums, and the first
solo I transcribed.  It's all correct, you just have to figure out the timing,
enjoy.
 


 Intro

|-------------------------------------------------------|
|-------------------------------------------------------|
|-----------------------------------9-9--7-7--5---------|
|-5/---10----9--5--x-7--5---5/------------------9----|
|-----------------------------------7-7--5-5--3---------|
|-3/----8----7--3--x-5--3---3/------------------7----|


				Repeat	    Bridge
|----------------------------------------|--7-----5------8-|
|----------------------------------------|--8-----5------8-|
|----------------------------------------|--9-----6------9-|
|-5--9-9-9--5--10-9-10--5----5--2--10-|--9-----7-----10-|
|----------------------------------------|--7-----7-----10-|
|-3--7-7-7--3---8-7--8--3----3--0---8-|--------5------8-|


 						Chorus
|-3-----7-----5----5-x-5-x-5-x-5-x-8-x-8-x-8-x-8---3-------|
|-3-----8-----5----6-x-6-x-6-x-6-x-6-x-6-x-6-x-6---3--x-5--|
|-4-----9-----6----5-x-5-x-5-x-5-x-5-x-5-x-5-x-5---4--x-5--|
|-5-----9-----7------------------------------------5--x-5--|
|-5-----7-----7------------------------------------5--x-3--|
|-3-----------5------------------------------------3-------|


|-------3------------3------------3------------3------------2-2---0--0-0-0-|
|-5-5-x-3--x-5-5-5-x-3--x-5-5-5-x-3--x-5-5-5-x-3--x-5-5-5-x-3-3-x-0--0-0-0-|
|-5-5-x-4--x-5-5-5-x-4--x-5-5-5-x-4--x-5-5-5-x-4--x-5-5-5-x-4-4-x-0--0-0-0-|
|-5-5-x-5--x-5-5-5-x-5--x-5-5-5-x-5--x-5-5-5-x-5--x-5-5-5-x-4-4-x-2--2-2-2-|
|-3-3-x-5--x-3-3-3-x-5--x-3-3-3-x-5--x-3-3-3-x-5--x-3-3-3-x-2-2-x-2--2-2-2-|
|-------3------------3------------3------------3------------------0--0-0-0-|


|-0-0-0-x-2-2-2-3-^3----|
|-1-1-1-x-3-3-3-3-^3----|
|-2-2-2-x-2-2-2---^0----|
|-2-2-2-x-0-0-0---^0----|
|-0-0-0-----------^2----|
|-----------------^3----|


Solo
  Gtr I
                          ~~~        ~
|---------------------------------------------------------------|
|---------------------------------------------------------------|
|---------------------------------------------------------------|
|--------------------------------------------------------4S5-4--|
|-------------------------------------------------5S7-5---------|
|-0--2-3--5-5S7--5-7-8--/10---10-8-7-8--/8-7-5-3----------------|


      ~                         ~     ~
|------------------------------------------------------------------|
|------------------------------------------------------------------|
|--------4-4-4h5-4--------7---7S9-7-5-4------------------7S9--7--5-|
|-5S7-5------------5--5-5---5----------------4-5-5S7-5-7-----------|
|----------------------------------------5S7-----------------------|
|------------------------------------------------------------------|


     ~            ~                           ~
|---------------------------------------7h8-7-------10----8---7---5--|
|------------------------7---8---10---8-------8-8-8-----8---8---7----|
|-4--5--5S7-5s7s2s4--------------------------------------------------|
|---------------------/9---9---9----9--------------------------------|
|--------------------------------------------------------------------|
|--------------------------------------------------------------------|


|-5S7-7--5s7-7----10---8---7---5---3----|
|-7S8-8--7s8-8--8----8---8---7---5------|
|---------------------------------------|
|---------------------------------------|
|---------------------------------------|
|---------------------------------------|


Текст, аккорды и табулатура для песни "Moon Is Mine", исполняет "Pillows".
Используемые в песне аккорды можно найти в разделе Как брать аккорды. Аккорды для шестиструнной гитары. Другие песни можно найти на нашем сайте, воспользовавшись алфавитным указателем вверху страницы.


 
Ошибка в тексте? Выделите ошибку и нажмите Ctrl+Enter