The Pillows
Little Busters
Standard Tuning 
Tabbed by Alex Fragd (mavrick_45)


G-------------------------------------------------------
D------------------------------------5555---3333-3333---
A---3333----------------------3333----------------------
E----------3333---1111-1111-----------------------------

G--------------------------------------------------
D--------------------------------------------------
A---3333---2222---0000-----------------------------
E------------------------3333---1111111111111111---

G-------------------------------------------------------
D------------------------------------5555---3333-3333---
A---3333----------------------3333----------------------
E----------3333---1111-1111-----------------------------

G------------------------------------------------
D------------------------------------------------
A---3333---2222---0000-----------------------3---
E-------------------------3333---11111111111-----

G---------------------------------------------------
D---------------------------------------------------
A---------------------------------------3333-3333---
E---3333-3333---5555-5555---1111-1111---------------

G---------------------------------------------------------
D---------------------------------------------------------
A---------------------------------------------------------
E---3333-3333---5555-5555---1>---3--1-1--3-3-3--1-1--3>---

G-------------------------------------------------------
D------------------------------------5555---3333-3333---
A---3333----------------------3333----------------------
E----------3333---1111-1111-----------------------------

G---5555---4444---2222---0000--------------------
D-------------------------------3----------------
A---------------------------------3----------3---
E-----------------------------------1111-1-1-----

G---------------------------------------------------
D---------------------------3333-3333---------------
A---------------------------------------3333-3333---
E---3333-3333---5555-5555---------------------------

G---------------------------------------------
D---------------------------------------------
A---------------------------------------------
E---3333-3333---5555-5555---1>---3--1-1--3>---

G-------------------------------------------------------
D------------------------------------5555---3333-3333---
A---3333----------------------3333----------------------
E----------3333---1111-1111-----------------------------

G--------------------------------------------------
D--------------------------------------------------
A---3333---2222---0000-----------------------------
E------------------------3333---1111111111111111---

G-------------------------------------------------------
D------------------------------------5555---3333-3333---
A---3333----------------------3333----------------------
E----------3333---1111-1111-----------------------------

G------------------------------------------------
D------------------------------------------------
A---3333---2222---0000-----------------------3---
E-------------------------3333---11111111111-----

G-------------------------------------------5555-5555---
D---------------------------3---------------------------
A-----------------------------3-------------------------
E---3333-3333---5555-5555-------1111-1111---------------

G-------------------------------------------------------
D---5555-5555---7777-7777-/-15--3---5--3-3-5--3-3-5>---
A-------------------------------------------------------
E-------------------------------------------------------

G-------------------------------------------------------
D------------------------------------5555---3333-3333---
A---3333----------------------3333----------------------
E----------3333---1111-1111-----------------------------

G---5555---4444---2222---0000--------------------
D-------------------------------3----------------
A---------------------------------3----------3---
E-----------------------------------1111-1-1-----

G-------------------------------------------------------
D------------------------------------5555---3333-3333---
A---3333----------------------3333----------------------
E----------3333---1111-1111-----------------------------

G-------------------------------------------------------
D------------------------------------5555---3333-3333---
A---3333----------------------3333----------------------
E----------3333---1111-1111-----------------------------

G-------------------------------------------------------
D-------------------------------------------------------
A---3333----------------------3333----------------------
E----------3333---1111-1111----------3333---1111-1111---

G------------------------------------------------
D------------------------------------------------
A---3333---2222---0000-----------------------3---
E-------------------------3333---11111111111-----

G-------------------------------------------------------
D------------------------------------5555---3333-3333---
A---3333----------------------3333----------------------
E----------3333---1111-1111-----------------------------

G---5555---4444---2222---0000--------------------
D-------------------------------3----------------
A---------------------------------3----------3---
E-----------------------------------1111-1-1-----


Текст, аккорды и табулатура для песни "Little Busters", исполняет "Pillows".
Используемые в песне аккорды можно найти в разделе Как брать аккорды. Аккорды для шестиструнной гитары. Другие песни можно найти на нашем сайте, воспользовавшись алфавитным указателем вверху страницы.


 
Ошибка в тексте? Выделите ошибку и нажмите Ctrl+Enter