*******************************************
*Band: the pillows                        *
*Song: Let's see, if that's true or not   *
*Album: Runners High                      *
*Release: 1999                            *
*******************************************
--------------------------------------------
|Tabbed by: NardDude [[email protected]]|
|Date: 2003-07-25                          |
--------------------------------------------

Notes:
The majority of this song is played on a Clean
electric guitar unless otherwise stated. As for
the part in the song with the wonky effects, as
far as I can tell he uses a Delay effect and
something else. I don't know what that something
else would be since I don't own many effects pedals.
I only have the effects that come with my amp.

So, as always, if anyone knows what effect is used or
have any corrections to the tab, please email me! It
would be super appreciated! Thanks a bunch! ^__^

Symbols:

h  - hammer on
p  - pull off
:  - let ring
/  - slide up
  - slide down
~  - vibrato
tr - tremello
X  - muted string

---------------------------------

[INTRO]

Guitar 1
e --------3---------------|----------5--------------|
b ------3-----------------|-------------3:----------|
g --4h5------0:-----------|--4h5p4------------------|
d ------------------------|-------------------------|
a ------------------------|-------------------------|
e ------------------------|-------------------------|
								x 2
Guitar 2
e ----------------------------|---------------------------|
b ----------------------------|---------------------------|
g ----------------------------|---------------------------|
d ------------0-0-0-0-0-0-0-0-|-----------0-0-0-0-0-0-0-0-|
a ------------2-2-3-2-2-2-3-2-|-----------2-2-3-2-2-2-3-2-|
e ------------3-3-3-3-3-3-3-3-|-----------3-3-3-3-3-3-3-3-|


[VERSE 1]

Guitar 1				Guitar 2
e -------------------------------------|e --3-3-3-3-3-3-3-3-3-3-3-3-3-3-3-3-3--|
b -------------------------------------|b --3-3-3-3-3-3-3-3-3-3-3-3-3-3-3-3-3--|
g -------------------------------------|g -------------------------------------|
d -------------------------------------|d -------------------------------------|
a --2-2-2-2-2-2-2-2-2-2-2-2-2-2-2-2-2--|a -------------------------------------|
e --3-3-3-3-3-3-3-3-3-3-3-3-3-3-3-3-3--|e -------------------------------------|
										  x 3
Guitar 1				Guitar 2
e -------------------------------------|e --2-2-2-2-2-2-2-2-3-3-3-3-3-3-3-3-3--|
b -------------------------------------|b --3-3-3-3-3-3-3-3-3-3-3-3-3-3-3-3-3--|
g -------------------------------------|g -------------------------------------|
d --0-0-0-0-0-0-0-0-2-2-2-2-2-2-2-2-2--|d -------------------------------------|
a --2-2-2-2-2-2-2-2-2-2-2-2-2-2-2-2-2--|a -------------------------------------|
e -------------------------------------|e -------------------------------------|

Guitar 1				Guitar 2
e -------------------------------------|e --3-3-3-3-3-3-3-3-3-3-3-3-3-3-3-3-3--|
b -------------------------------------|b --3-3-3-3-3-3-3-3-3-3-3-3-3-3-3-3-3--|
g -------------------------------------|g -------------------------------------|
d -------------------------------------|d -------------------------------------|
a --2-2-2-2-2-2-2-2-2-2-2-2-2-2-2-2-2--|a -------------------------------------|
e --3-3-3-3-3-3-3-3-3-3-3-3-3-3-3-3-3--|e -------------------------------------|

Guitar 1				Guitar 2
e -------------------------------------|e --2-2-2-2-2-2-2-2-3-3-3-3-3-3-3-3-3--|
b -------------------------------------|b --3-3-3-3-3-3-3-3-3-3-3-3-3-3-3-3-3--|
g -------------------------------------|g -------------------------------------|
d --0-0-0-0-0-0-0-0-2-2-2-2-2-2-2-2-2--|d -------------------------------------|
a --2-2-2-2-2-2-2-2-2-2-2-2-2-2-2-2-2--|a -------------------------------------|
e -------------------------------------|e -------------------------------------|

Guitar 1	      Guitar 2
e -------------------|e --3-3-3-3-3-3-3-3--|
b -------------------|b --3-3-3-3-3-3-3-3--|
g -------------------|g -------------------|
d --2-2-2-2-2-2-2-2--|d -------------------|
a --2-2-2-2-2-2-2-2--|a -------------------|
e -------------------|e -------------------|

[RIFF]

Guitar 1
e --------3---------------|----------5--/3---/5---/7--|
b ------3--------3-5-3----|----------------3----3-----|
g --4h5------0:-----------|-1/4-5-4-------------------|
d ------------------------|---------------------------|
a ------------------------|---------------------------|
e ------------------------|---------------------------|

Guitar 2
e ----------------------------|---------------------------|
b ----------------------------|---------------------------|
g ----------------------------|---------------------------|
d -0-0-0-0-0--0-0-0-0-0-0-0-0-|-0-0-0-0-0-0-0-0-0-0-0-0-0-|
a -2-2-2-2-2--2-2-3-2-2-2-3-2-|-2-2-2-2-2-2-2-3-2-2-2-3-2-|
e -3-3-3-3-3--3-3-3-3-3-3-3-3-|-3-3-3-3-3-3-3-3-3-3-3-3-3-|

Guitar 1
e --------3---------------|-------------/2--/3:-------|
b ------3--------3-5-3----|---------/5----0-----------|
g --4h5------0:-----------|-1/4-5-4---4---------------|
d ------------------------|---------------------------|
a ------------------------|---------------------------|
e ------------------------|---------------------------|

Guitar 2
e ----------------------------|---------------------------|
b ----------------------------|---------------------------|
g ----------------------------|---------------------------|
d -0-0-0-0-0--0-0-0-0-0-0-0-0-|-0-0-0-0-0-0-0-0-0-0-0-0-0-|
a -2-2-2-2-2--2-2-3-2-2-2-3-2-|-2-2-2-2-2-2-2-3-2-2-2-3-2-|
e -3-3-3-3-3--3-3-3-3-3-3-3-3-|-3-3-3-3-3-3-3-3-3-3-3-3-3-|


[VERSE 2]

Guitar 1				Guitar 2
e -------------------------------------|e --3-3-3-3-3-3-3-3-3-3-3-3-3-3-3-3-3--|
b -------------------------------------|b --3-3-3-3-3-3-3-3-3-3-3-3-3-3-3-3-3--|
g -------------------------------------|g -------------------------------------|
d -------------------------------------|d -------------------------------------|
a --2-2-2-2-2-2-2-2-2-2-2-2-2-2-2-2-2--|a -------------------------------------|
e --3-3-3-3-3-3-3-3-3-3-3-3-3-3-3-3-3--|e -------------------------------------|
										  x 3
Guitar 1				Guitar 2
e -------------------------------------|e --2-2-2-2-2-2-2-2-3-3-3-3-3-3-3-3-3--|
b -------------------------------------|b --3-3-3-3-3-3-3-3-3-3-3-3-3-3-3-3-3--|
g -------------------------------------|g -------------------------------------|
d --0-0-0-0-0-0-0-0-2-2-2-2-2-2-2-2-2--|d -------------------------------------|
a --2-2-2-2-2-2-2-2-2-2-2-2-2-2-2-2-2--|a -------------------------------------|
e -------------------------------------|e -------------------------------------|

Guitar 1				Guitar 2
e -------------------------------------|e --3-3-3-3-3-3-3-3-3-3-3-3-3-3-3-3-3--|
b -------------------------------------|b --3-3-3-3-3-3-3-3-3-3-3-3-3-3-3-3-3--|
g -------------------------------------|g -------------------------------------|
d -------------------------------------|d -------------------------------------|
a --2-2-2-2-2-2-2-2-2-2-2-2-2-2-2-2-2--|a -------------------------------------|
e --3-3-3-3-3-3-3-3-3-3-3-3-3-3-3-3-3--|e -------------------------------------|

Guitar 1				Guitar 2
e -------------------------------------|e --2-2-2-2-2-2-2-2-3-3-3-3-3-3-3-3-3--|
b -------------------------------------|b --3-3-3-3-3-3-3-3-3-3-3-3-3-3-3-3-3--|
g -------------------------------------|g -------------------------------------|
d --0-0-0-0-0-0-0-0-2-2-2-2-2-2-2-2-2--|d -------------------------------------|
a --2-2-2-2-2-2-2-2-2-2-2-2-2-2-2-2-2--|a -------------------------------------|
e -------------------------------------|e -------------------------------------|

Guitar 1	      Guitar 2
e -------------------|e --3-3-3-3-3-3-3-3--|
b -------------------|b --3-3-3-3-3-3-3-3--|
g -------------------|g -------------------|
d --2-2-2-2-2-2-2-2--|d -------------------|
a --2-2-2-2-2-2-2-2--|a -------------------|
e -------------------|e -------------------|

[RIFF]
Guitar 1: Turn on a slight distortion effect

Guitar 1
e --------3---------------|----------5----/3---5---7:-|
b ------3--------3-5-3----|-----------------3---3-----|
g --4h5------0:-----------|-1/4-5-4-------------------|
d ------------------------|---------------------------|
a ------------------------|---------------------------|
e ------------------------|---------------------------|

Guitar 2
e ----------------------------|---------------------------|
b ----------------------------|---------------------------|
g ----------------------------|---------------------------|
d -0-0-0-0-0--0-0-0-0-0-0-0-0-|-0-0-0-0-0-0-0-0-0-0-0-0-0-|
a -2-2-2-2-2--2-2-3-2-2-2-3-2-|-2-2-2-2-2-2-2-3-2-2-2-3-2-|
e -3-3-3-3-3--3-3-3-3-3-3-3-3-|-3-3-3-3-3-3-3-3-3-3-3-3-3-|

Guitar 1
e --------3---------------|-------------/2--/3:-------|
b ------3--------3-5-3----|---------/5----0-----------|
g --4h5------0:-----------|-1/4-5-4---4---------------|
d ------------------------|---------------------------|
a ------------------------|---------------------------|
e ------------------------|---------------------------|

Guitar 2
e ----------------------------|---------------------------|
b ----------------------------|---------------------------|
g ----------------------------|---------------------------|
d -0-0-0-0-0--0-0-0-0-0-0-2-0-|-0-0-0-0-0-0-0-0-0-0-0-0-0-|
a -2-2-2-2-2--2-2-3-2-2-2-2-2-|-2-2-2-2-2-2-2-3-2-2-2-3-2-|
e -3-3-3-3-3--3-3-3-3-3-3-3-3-|-3-3-3-3-3-3-3-3-3-3-3-3-3-|

[VERSE 3]

Guitar 1
e -------------------------------------|
b -------------------------------------|
g -------------------------------------|
d -------------------------------------|
a --2-2-2-2-2-2-2-2-2-2-2-2-2-2-2-2-2--|
e --3-3-3-3-3-3-3-3-3-3-3-3-3-3-3-3-3--|
					  x 3
Guitar 1
e -------------------------------------|
b -------------------------------------|
g -------------------------------------|
d --0-0-0-0-0-0-0-0-2-2-2-2-2-2-2-2-2--|
a --2-2-2-2-2-2-2-2-2-2-2-2-2-2-2-2-2--|
e -------------------------------------|

Guitar 1
e -------------------------------------|
b -------------------------------------|
g -------------------------------------|
d -------------------------------------|
a --2-2-2-2-2-2-2-2-2-2-2-2-2-2-2-2-2--|
e --3-3-3-3-3-3-3-3-3-3-3-3-3-3-3-3-3--|

Guitar 1
e -------------------------------------|
b -------------------------------------|
g -------------------------------------|
d --0-0-0-0-0-0-0-0-2-2-2-2-2-2-2-2-2--|
a --2-2-2-2-2-2-2-2-2-2-2-2-2-2-2-2-2--|
e -------------------------------------|

Guitar 1
e -------------------|
b -------------------|
g -------------------|
d --2-2-2-2-2-2-2-2--|
a --2-2-2-2-2-2-2-2--|
e -------------------|

[CHORUS]

G - Em - C - G x 3

G - Em - C - D

[VERSE 4]

Guitar 1
e ---------------------------------|
b ---------------------------------|
g ---------------------------------| Repeat until Outro
d -0-0-0-0-0-0-0-0-0-0-2-0-0-0-2-0-|
a -2-2-3-2-2-2-3-2-2-2-2-2-2-2-2-2-|
e -3-3-3-3-3-3-3-3-3-3-3-3-3-3-3-3-|

Guitar 2
e ------3----2-------|
b -3:-------------3:-|
g -------------------| Play throughout with Delay
d -------------------|
a -------------------|
e -------------------|

[OUTRO]

e ---0---|
b ---1---|
g ---0---|
d ---2---|
a ---3---|
e -------|

Turn on Distortion

e -----------------------------------------------------|
b -----------------------------------------------------|
g ----------------------------4--4--4-4-4--5--5--5-5-5-|
d --5--5--5-5-5--2--2--2-2-2--4--4--4-4-4--5--5--5-5-5-| x 6 then Fade out
a --5--5--5-5-5--2--2--2-2-2--2--2--2-2-2--3--3--3-3-3-|
e --3--3--3-3-3--0--0--0-0-0---------------------------|


Текст, аккорды и табулатура для песни "Lets See If Thats True Or Not", исполняет "Pillows".
Используемые в песне аккорды можно найти в разделе Как брать аккорды. Аккорды для шестиструнной гитары. Другие песни можно найти на нашем сайте, воспользовавшись алфавитным указателем вверху страницы.


 
Ошибка в тексте? Выделите ошибку и нажмите Ctrl+Enter