Artist: The Pillows
Album : FLCL Soundtrack
Song  : Instant Music
Author: David Drew @ [email protected]

This is one of the more fun songs to play on the soundtrack.
You'll notice in hearing it that it sounds relatively simple
to play, because it is. I should note, however, that on the
chord rise in the solo, I pretty much half-assed it. Your
guess is as good as mine as to what those lower notes are...

Feel free to drop me a line if you figure it out.


Dropped D tuning

intro (guitar 1)
E-----------------------------------------------------------|
B--------------------------------3--------------------------|
G-----7--4-----------------4-----5--2-----------------------|
D--5--------5--7--4--5--7-----7--5--0-----------------------|
A--------------------------------3--------------------------|
D-----------------------------------------------------------|

intro (guitar 2 - softly strumming, echo effect)
E--------------------------------------------------------------|
B-----0--------------------------------------------------------|
G--4--2--5--4--5-----------------------------------------------|
D--5--0--5--5--5-----------------------------------------------|
A--5--0--3--3--3-----------------------------------------------|
D--------------------------------------------------------------|
   8x 8x 8x    7x

Verse (repeat twice)
E-----------------------------------------+-----------------|
B-----0-------0----------0---3-------0----+-----------------|
G-4---2---4---2------4---2---5---4---2----+-----------------|
D-5---0---5---0------5---0---5---4---0----+----4---5---7----|
A-5---0---3---0------5---0---3---2---0----+----4---5---7----|
D-----------------------------------------+----4---5---7----|
8x   8x  8x  8x     8x  8x  5x  1x  1x 1beat  3x  1x  1x

chorus (2x  b=bend)
E-------------|--------8-7---------8-7----------------------|
B-------------|-8b-8-8-8-8--8b-8-8-8-8----------------------|
G-------------|---------------------------------------------|
D--5---7---2--|---------------------------------------------|
A--3---5---2--|---------------------------------------------|
D--5---7---2--|---------------------------------------------|
  8x  8x  16x
2x, then  ---->play this only after playing the first part
		   once. If you don't understand, listen to the
		   song.

repeat intro
repeat verse

Solo
E-----------------------------------------------------------|
B-----------------------------------------------------------|
G-6b-4-5-4-0--6b-6b-5-4-5-4-0------------------0-2-4-5-4----|
D------------------------------------------0-2--------------|
A--------------------------------------0-2------------------|
D------------------------------0-2-4-5----------------------|

E-----------------------------------------------------------|
B---------------------------7b-6b-9b-------5-7--------------|
G-6b-4-5-4-0--6b-6b-5-4-5-7----------7-7-7------------------|
D-----------------------------------------------------------|
A-----------------------------------------------------------|
D-----------------------------------------------------------|

End with chorus, and finish with intro.


Текст, аккорды и табулатура для песни "Instant Music", исполняет "Pillows".
Используемые в песне аккорды можно найти в разделе Как брать аккорды. Аккорды для шестиструнной гитары. Другие песни можно найти на нашем сайте, воспользовавшись алфавитным указателем вверху страницы.


 
Ошибка в тексте? Выделите ошибку и нажмите Ctrl+Enter