***********************
*Band: the pillows    *
*Song: Funny Bunny    *
*Album: Happy Bivouac *
*Release: 2000        *
***********************
--------------------------------------------
|Tabbed by: NardDude [[email protected]]|
|Date: 2003-01-11                          |
--------------------------------------------

[INTRO]

e -----------------|---------------|-2-2-2-2-2-2-2-2-|-3-3-3-2-3-2-3-3-|
b -3-3-3-3-3-3-3-3-|-5-5-5-5-5-5-5-|-3-3-3-3-3-3-3-3-|-3-3-3-3-3-3-3-3-|
g -2-2-2-2-2-2-2-2-|-4-4-4-4-4-4-4-|-----------------|-----------------|
d -----------------|---------------|-----------------|-----------------|
a -----------------|---------------|-----------------|-----------------|
e -----------------|---------------|-----------------|-----------------|

e -----------------|---------------|-2-2-2-2-2-2-2-2-|-3-3-3-2-3-2-3-3-|
b -3-3-3-3-3-3-3-3-|-5-5-5-5-5-5-5-|-3-3-3-3-3-3-3-3-|-3-3-3-3-3-3-3-3-|
g -2-2-2-2-2-2-2-2-|-4-4-4-4-4-4-4-|-----------------|-----------------|
d -----------------|---------------|-----------------|-----------------|
a -----------------|---------------|-----------------|-----------------|
e -----------------|---------------|-----------------|-----------------|

[VERSE 1]

e -----------------|---------------|-----------------|-----------------|
b -3-3-3-3-3-3-3-3-|-5-5-5-5-5-5-5-|-3-3-3-3-3-3-3-3-|-5-5-5-3-5-3-5-5-|
g -2-2-2-2-2-2-2-2-|-4-4-4-4-4-4-4-|-2-2-2-2-2-2-2-2-|-4-4-4-4-4-4-4-4-|
d -----------------|---------------|-----------------|-----------------|
a -----------------|---------------|-----------------|-----------------|
e -----------------|---------------|-----------------|-----------------|

e -----------------|---------------|-2-2-2-2-2-2-2-2-|-----------------|
b -3-3-3-3-3-3-3-3-|-5-5-5-5-5-5-5-|-3-3-3-3-3-3-3-3-|-5-5-5-3-5-3-5-5-|
g -2-2-2-2-2-2-2-2-|-4-4-4-4-4-4-4-|-----------------|-4-4-4-4-4-4-4-4-|
d -----------------|---------------|-----------------|-----------------|
a -----------------|---------------|-----------------|-----------------|
e -----------------|---------------|-----------------|-----------------|

e -----------------|---------------|-----------------|-----------------|
b -3-3-3-3-3-3-3-3-|-5-5-5-5-5-5-5-|-3-3-3-3-3-3-3-3-|-5-5-5-3-5-3-5-5-|
g -2-2-2-2-2-2-2-2-|-4-4-4-4-4-4-4-|-2-2-2-2-2-2-2-2-|-4-4-4-4-4-4-4-4-|
d -----------------|---------------|-----------------|-----------------|
a -----------------|---------------|-----------------|-----------------|
e -----------------|---------------|-----------------|-----------------|

e -----------------|---------------|-2-2-2-2-2-2-2-2-|-----------------|
b -3-3-3-3-3-3-3-3-|-5-5-5-5-5-5-5-|-3-3-3-3-3-3-3-3-|-5-5-5-3-5-3-5-5-|
g -2-2-2-2-2-2-2-2-|-4-4-4-4-4-4-4-|-----------------|-4-4-4-4-4-4-4-4-|
d -----------------|---------------|-----------------|-----------------|
a -----------------|---------------|-----------------|-----------------|
e -----------------|---------------|-----------------|-----------------|

[PRE-CHORUS]

e --------3---------2------|--------2-3-2-0---3------|
b -------------------------|------------------3------|
g ----4---------2-----2----|------4-----------4------|
d ------5---------4--------|----4-------------5------|
a --5---------4------------|--2---------------5------|
e -------------------------|------------------3------|

e --2---2------3----3------|----------------------------|
b --2-2-----2--3--3-----3--|---2----2----2----2---------|
g --2-----2----4------4----|-----2----2----2----2-------|
d --4----------5-----------|----------------------------|
a --4----------5-----------|-0--------------------------|
e --2----------3-----------|-------3----2----0----------|

[VERSE 2]

e -----------------|---------------|-----------------|-----------------|
b -3-3-3-3-3-3-3-3-|-5-5-5-5-5-5-5-|-3-3-3-3-3-3-3-3-|-5-5-5-3-5-3-5-5-|
g -2-2-2-2-2-2-2-2-|-4-4-4-4-4-4-4-|-2-2-2-2-2-2-2-2-|-4-4-4-4-4-4-4-4-|
d -----------------|---------------|-----------------|-----------------|
a -----------------|---------------|-----------------|-----------------|
e -----------------|---------------|-----------------|-----------------|

e -----------------|---------------|-2-2-2-2-2-2-2-2-|-----------------|
b -3-3-3-3-3-3-3-3-|-5-5-5-5-5-5-5-|-3-3-3-3-3-3-3-3-|-5-5-5-3-5-3-5-5-|
g -2-2-2-2-2-2-2-2-|-4-4-4-4-4-4-4-|-----------------|-4-4-4-4-4-4-4-4-|
d -----------------|---------------|-----------------|-----------------|
a -----------------|---------------|-----------------|-----------------|
e -----------------|---------------|-----------------|-----------------|

[PRE-CHORUS]

e --------3---------2------|--------2-3-2-0---3------|
b -------------------------|------------------3------|
g ----4---------2-----2----|------4-----------4------|
d ------5---------4--------|----4-------------5------|
a --5---------4------------|--2---------------5------|
e -------------------------|------------------3------|

e --2---2------3----3------|----------------------------|
b --2-2-----2--3--3-----3--|---2----2----2----2---------|
g --2-----2----4------4----|-----2----2----2----2-------|
d --4----------5-----------|----------------------------|
a --4----------5-----------|-0--------------------------|
e --2----------3-----------|-------3----2----0----------|

[CHORUS]

e --3--3--0--0--2-2-2-2-2-2-2-2---|-3--3--2--2--2-2-2-2-2-2-2-2-0-|
b --3--3--2--2--3-3-3-3-3-3-3-3---|-3--3--2--2--3-3-3-3-3-3-3-3-2-|
g --4--4--2--2--2-2-2-2-2-2-2-2---|-4--4--2--2--4-4-4-4-4-4-4-4-2-|
d --5--5--2--2--0-0-0-0-0-0-0-0---|-5--5--4--4--4-4-4-4-4-4-4-4-2-|
a --5--5--0--0--------------------|-5--5--4--4--2-2-2-2-2-2-2-2-0-|
e --3--3--------------------------|-3--3--2--2--2-2-2-2-2-2-2-2---|

e --3--3--0--0--2-2-2-2-0-0-0-0---|-3--3--0--0--2-----------------|
b --3--3--2--2--3-3-3-3-2-2-2-2---|-3--3--2--2--3-----------------|
g --4--4--2--2--2-2-2-2-2-2-2-2---|-4--4--2--2--2-----------------|
d --5--5--2--2--0-0-0-0-2-2-2-2---|-5--5--2--2--0-----------------|
a --5--5--0--0----------0-0-0-0---|-5--5--0--0--------------------|
e --3--3--------------------------|-3--3--------------------------|

[BRIDGE]

e --------------------|
b --7-8-7-10-8-7------|
g ---------------9----|
d --------------------|
a --------------------|
e --------------------|

[SOLO]

e -----------------------------------|
b --7--7--7-8-7---7--7-8-7-8-8-8-10--|
g --------------5--------------------|
d -----------------------------------|
a -----------------------------------|
e -----------------------------------|

e -----------------------------------|
b --7--7--7-8-7---7--7-8-7-8-8-8-10--|
g --------------5--------------------|
d -----------------------------------|
a -----------------------------------|
e -----------------------------------|

e ----------------------------10-9-7-|-------------------------------------|
b ----------------b7-----------------|-10-8-----7--b7-----------------7~~--|
g ------7--7h9p7-----7-b9--7---------|------7-9--------9--7-----7--9-------|
d --7h9------------------------------|-----------------------9-------------|
a -----------------------------------|-------------------------------------|
e -----------------------------------|-------------------------------------|

[PRE-CHORUS]

e --------3---------2------|--------2-3-2-0---3------|
b -------------------------|------------------3------|
g ----4---------2-----2----|------4-----------4------|
d ------5---------4--------|----4-------------5------|
a --5---------4------------|--2---------------5------|
e -------------------------|------------------3------|

e --2---2------3----3------|----------------------------|
b --2-2-----2--3--3-----3--|---2----2----2----2---------|
g --2-----2----4------4----|-----2----2----2----2-------|
d --4----------5-----------|----------------------------|
a --4----------5-----------|-0--------------------------|
e --2----------3-----------|-------3----2----0----------|

e ------------------------|
b ---2----2----2----2-----|
g -----2----2----2----2---|
d -----------------2------|
a -0-----2----4-----------|
e ------------------------|

[CHORUS]

e --3--3--0--0--2-2-2-2-2-2-2-2---|-3--3--2--2--2-2-2-2-2-2-2-2-0-|
b --3--3--2--2--3-3-3-3-3-3-3-3---|-3--3--2--2--3-3-3-3-3-3-3-3-2-|
g --4--4--2--2--2-2-2-2-2-2-2-2---|-4--4--2--2--4-4-4-4-4-4-4-4-2-|
d --5--5--2--2--0-0-0-0-0-0-0-0---|-5--5--4--4--4-4-4-4-4-4-4-4-2-|
a --5--5--0--0--------------------|-5--5--4--4--2-2-2-2-2-2-2-2-0-|
e --3--3--------------------------|-3--3--2--2--2-2-2-2-2-2-2-2---|

e --3--3--0--0--2-2-2-2-0-0-0-0---|-3--3--0--0--2-----------------|
b --3--3--2--2--3-3-3-3-2-2-2-2---|-3--3--2--2--3-----------------|
g --4--4--2--2--2-2-2-2-2-2-2-2---|-4--4--2--2--2-----------------|
d --5--5--2--2--0-0-0-0-2-2-2-2---|-5--5--2--2--0-----------------|
a --5--5--0--0----------0-0-0-0---|-5--5--0--0--------------------|
e --3--3--------------------------|-3--3--------------------------|

e --3--3--0--0--2-2-2-2-2-2-2-2---|-3--3--2--2--2-2-2-2-2-2-2-2-0-|
b --3--3--2--2--3-3-3-3-3-3-3-3---|-3--3--2--2--3-3-3-3-3-3-3-3-2-|
g --4--4--2--2--2-2-2-2-2-2-2-2---|-4--4--2--2--4-4-4-4-4-4-4-4-2-|
d --5--5--2--2--0-0-0-0-0-0-0-0---|-5--5--4--4--4-4-4-4-4-4-4-4-2-|
a --5--5--0--0--------------------|-5--5--4--4--2-2-2-2-2-2-2-2-0-|
e --3--3--------------------------|-3--3--2--2--2-2-2-2-2-2-2-2---|

e --3--3--0--0--2-2-2-2-0-0-0-0---|-3--3--0--0--2-----------------|
b --3--3--2--2--3-3-3-3-2-2-2-2---|-3--3--2--2--3-----------------|
g --4--4--2--2--2-2-2-2-2-2-2-2---|-4--4--2--2--2-----------------|
d --5--5--2--2--0-0-0-0-2-2-2-2---|-5--5--2--2--0-----------------|
a --5--5--0--0----------0-0-0-0---|-5--5--0--0--------------------|
e --3--3--------------------------|-3--3--------------------------|

[OUTRO]

e -----------------|---------------|-2-2-2-2-2-2-2-2-|-3-3-3-2-3-2-3-3-|
b -3-3-3-3-3-3-3-3-|-5-5-5-5-5-5-5-|-3-3-3-3-3-3-3-3-|-3-3-3-3-3-3-3-3-|
g -2-2-2-2-2-2-2-2-|-4-4-4-4-4-4-4-|-----------------|-----------------|
d -----------------|---------------|-----------------|-----------------|
a -----------------|---------------|-----------------|-----------------|
e -----------------|---------------|-----------------|-----------------|

e -----------------|---------------|-2-2-2-2-2-2-2-2-|-3-3-3-2-3-2-3-3-|---5-|
b -3-3-3-3-3-3-3-3-|-5-5-5-5-5-5-5-|-3-3-3-3-3-3-3-3-|-3-3-3-3-3-3-3-3-|--7--|
g -2-2-2-2-2-2-2-2-|-4-4-4-4-4-4-4-|-----------------|-----------------|-7---|
d -----------------|---------------|-----------------|-----------------|-----|
a -----------------|---------------|-----------------|-----------------|-----|
e -----------------|---------------|-----------------|-----------------|-----|


Текст, аккорды и табулатура для песни "Funny Bunny", исполняет "Pillows".
Используемые в песне аккорды можно найти в разделе Как брать аккорды. Аккорды для шестиструнной гитары. Другие песни можно найти на нашем сайте, воспользовавшись алфавитным указателем вверху страницы.


 
Ошибка в тексте? Выделите ошибку и нажмите Ctrl+Enter