Song: Flame
Artist: The Pillows
Album: I dunno (Fool on the Planet i think)
Tabbed By: Shinkoshi Raigaa

Drop D Tuning

Intro
|------------------------------------------------------------------|
|------------------------------------------------------------------|
|---10-8-----10-8------10-8---10-----------------------------------|
|--------8--------8---------8----8-8-------------------------------|
|-6----------------------------------------------------------------|
|----------8--------11---------------------------------------------|


 Intro-ish - (Kicks in after intro)
|------------------------------------------------------------------|
|------------------------------------------------------------------|
|------------------------------------------------------------------|
|-11111111111111111--666666666666666666----------------------------|
|-11111111111111111--666666666666666666----------------------------|
|-11111111111111111--666666666666666666----------------------------|
  Just hit these alot... also another guitar is playing
  something over this and I don't really care cuz i can
  only play one guitar part at a time.... and this is it.SO HA!


Verse
|----------------------------|
|-11--------11---------------|
|----8-10-8----8-10-8--------|
|----------------------------|
|----------------------------|
|----------------------------| repeat this until you die..


Chorus
|------------------------------------------------------------------|
|------------------------------------------------------------------|
|-4-4-4------------------------------------------------------------|
|-4-4-4-4-4/3/1-11-1--5-55-5--6-6-6-6------------------------------|
|-2-2-2-4-4/3/1-11-1--5-55-5--6-6-6-6------------------------------|
|-------4-4/3/1-11-1--5-55-5--6-6-6-6------------------------------|


  Break
|------------------------------------------------------------------|
|------------------------------------------------------------------|
|--5-5-5-3-3-3---------------------5-5-5-3-3-3-------8-------------|
|--5-5-5-3-3-3-6-6-6--1h4-1h4-1h4--5-5-5-3-3-3-6~~---8-------------|
|--3-3-3-1-1-1-6-6-6--1h4-1h4-1h4--3-3-3-1-1-1-6-----6-------------|
|--------------6-6-6--1h4-1h4-1h4--------------6-------------------|
  This is played after the 2nd chorus and the Alteration 
  and theres a little solo thing played over it the 2nd
  time, but i don't know what it is so yea....


Alteration  (I make up these names cuz i dunno what to call 'em)
|------------------------------------------------------------------|
|------------------------------------------------------------------|
|------------------------------------------------------------------|
|-8-8-8-8/6--8-8-8-8/4-4--1-1--x-x-x--1-1--------------------------|
|-8-8-8-8/6--8-8-8-8/4-4--1-1--x-x-x--1-1--------------------------|
|-8-8-8-8/6--8-8-8-8/4-4--1-1--x-x-x--1-1--------------------------|

   This part is played...well just listen to the song and play along


Текст, аккорды и табулатура для песни "Flame", исполняет "Pillows".
Используемые в песне аккорды можно найти в разделе Как брать аккорды. Аккорды для шестиструнной гитары. Другие песни можно найти на нашем сайте, воспользовавшись алфавитным указателем вверху страницы.


 
Ошибка в тексте? Выделите ошибку и нажмите Ctrl+Enter