***********************************
*Band: the pillows    		  *
*Song: Dead Stock Paradise        *
*Album: Penalty Life		  *
*Release: 2003		          *
***********************************
--------------------------------------------
|Tabbed by: NardDude [[email protected]]|
|Date: 2003-12-22                          |
--------------------------------------------

NOTES:

This is a pretty cool song from the pillows' newest album, Penalty Life. It's a
pretty easy song and I'm more or less confident with the accuracy of this tab.
Anyway, just a few notes about the intro. You can play around with what I wrote
because there are some harmony parts that come in and out during the intro tha
 make it sound nifty. I'm also a little unsure of the chord they used during
the little last bit of the chorus (y'know, that part with the scratching).
It's a shame that there really isn't a solo in this song. Oh well. It still rocks.

Woo! I hope you enjoy this tab. ^___^ Any comments or corrections can be sent
via the email address at the top. pirozu forever! B)

Symbols:

h - hammer on
p - pull off
: - let ring
/ - slide up
 - slide down

[INTRO]

Guitar 1
e --------------------------------|
b --------------------------------|
g --------------------------------| x 9
d --------------------------------|
a --------------------------------|
e --0h2-2-2-0--00h2-2-2-0-0-0-----|

e --------------------------------|
b --------------------------------|
g --------------------------------|
d --2-4-4-4-2--22-4-4-4-2-2-2-----| x 4
a --2-4-4-4-2--22-4-4-4-2-2-2-----|
e --0-2-2-2-0--00-2-2-2-0-0-0-----|


Guitar 2 (Starts halfway through the 7th time of Guitar 1's first riff)
e --------------------------------|
b --------------------------------|
g --------------------------------|
d -2-4--------2-4-------2-4:------|
a -----2-4---------2-4------------|
e --------------------------------|

e --------------------------------|--------------------------------|
b -/11-12-11----------------------|-/11-11-11-12-11--------9-------|
g -----------11--9----9----9-----|-----------------11-9-9---9-9h11|
d ------------------11---11---11--|--------------------------------|
a --------------------------------|--------------------------------|
e --------------------------------|--------------------------------|

e -9-9:---------------------------|--------------------------------|
b --------------------------------|--------------------------------|
g --------------------------------|--------------------------------|
d --------------------------------|--------------------------------|
a --------------------------------|--------------------------------|
e --------------------------------|--------------------------------|

[VERSE]

Guitar 1
e --------------------------------|--------------------------------|
b --------------------------------|--------------------------------|
g --------------------------------|--------------------------------|
d --2-4-4-4-2--22-4-4-4-2-2-2-----|--2-4-4-4-2--22-4-4-4-2-2-2-----| x 4
a --2-4-4-4-2--22-4-4-4-2-2-2-----|--2-4-4-4-2--22-4-4-4-2-2-2-----|
e --0-2-2-2-0--00-2-2-2-0-0-0-----|--0-2-2-2-0--00-2-2-2-0-0-0-----|

Guitar 2
e --------------------------------|--------------------------------|
b ------------------------12-11---|------------------------12-11---|
g ----------------------11--------|----------------------11--------| x 4
d --------------------------------|--------------------------------|
a --------------------------------|--------------------------------|
e --------------------------------|--------------------------------|


[CHORUS]

Guitar 1

e --------------------------------|
b --------------------------------|
g --4-4-4-4-4-4-4-4-4-4-4-4-4-4-4-|
d --4-4-4-4-4-4-4-4-4-4-4-4-4-4-4-|
a --2-2-2-2-2-2-2-2-2-2-2-2-2-2-2-|
e --------------------------------|
    ^^^^^^^^^^^^^^^^^^^^^^^^^^^^^
   Just strum a bunch of times, I
   didn't bother counting how many
   strokes there were. ^.^;

e --------------------------------|
b --------------------------------|
g --------------------------------|
d --------------------------------|
a --------------------------------|
e --0h2-2-2-0--00h2-2-2-0-0-0-----|


e --------------------------------|
b --------------------------------|
g --4-4-4-4-4-4-4-4-4-4-4-4-4-4-4-|
d --4-4-4-4-4-4-4-4-4-4-4-4-4-4-4-|
a --2-2-2-2-2-2-2-2-2-2-2-2-2-2-2-|
e --------------------------------|
    ^^^^^^^^^^^^^^^^^^^^^^^^^^^^^
   It's the same deal here. ^_^

e ------------------------------------------|
b ------------------------------------------|
g --10-10-x-10-x-10-x-10-x-10-x-10-10-10-10-|
d --10-10-x-10-x-10-x-10-x-10-x-10-10-10-10-|
a --9--9--x-9--x-9--x-9--x-9--x-9--9--9--9--|
e ------------------------------------------|
    ^^^^^^^^^^^^^^^^^^^^^^^^^^^^^^^^^^^^^^^
   I tried to get a basic idea of
   the rhythm here. It's not perfect
   though. -__-;

Guitar 1
e --------------------------------|--------------------------------|
b --------------------------------|--------------------------------|
g --------------------------------|--------------------------------|
d --------------------------------|--------------------------------|
a --------------------------------|--------------------------------|
e --0h2-2-2-0--00h2-2-2-0-0-0-----|--0h2-2-2-0--00h2-2-2-0-0-0-----|

Guitar 2
e --------------------------------|--------------------------------|
b --------------------------------|--------------------------------|
g --------------------------------|-3:-4-3:------------------------|
d --2--4:-------------------------|--------------------------------|
a --------------------------------|--------------------------------|
e --------------------------------|--------------------------------|

[BRIDGE]

Guitar 1
e --------------------------------|
b --------------------------------|
g --------------------------------|
d --2-4-4-4-2--22-4-4-4-2-2-2-----| x 4
a --2-4-4-4-2--22-4-4-4-2-2-2-----|
e --0-2-2-2-0--00-2-2-2-0-0-0-----|

Guitar 2
e --------------------------------|--------------------------------|
b -/11-12-11----------------------|-/11-11-11-12-11--------9-------|
g -----------11--9----9----9-----|-----------------11-9-9---9-9h11|
d ------------------11---11---11--|--------------------------------|
a --------------------------------|--------------------------------|
e --------------------------------|--------------------------------|

e -9-9:---------------------------|--------------------------------|
b --------------------------------|--------------------------------|
g --------------------------------|--------------------------------|
d --------------------------------|--------------------------------|
a --------------------------------|--------------------------------|
e --------------------------------|--------------------------------|

REPEAT [VERSE]
REPEAT [CHoRUS]

[OUTRO]

Guitar 1
e --------------------------------|
b --------------------------------|
g --------------------------------|
d --2-4-4-4-2--22-4-4-4-2-2-2-----| x 3
a --2-4-4-4-2--22-4-4-4-2-2-2-----|
e --0-2-2-2-0--00-2-2-2-0-0-0-----|

Guitar 2
e -21--------19--|-21--------19--|-21--------19--|-21--------19--|-21------------|-21--------19--|
b --------21-----|----19--21-----|----19--21-----|----19---------|----19--21-----|----19--21-----|
g ----18---------|---------------|---------------|--------18-----|-----------18--|---------------|
d ---------------|---------------|---------------|---------------|---------------|---------------|
a ---------------|---------------|---------------|---------------|---------------|---------------|
e ---------------|---------------|---------------|---------------|---------------|---------------|

Guitar 1 Pauses

Guitar 2

e -21--------19--|
b ----19--21-----|
g ---------------| x 2
d ---------------|
a ---------------|
e ---------------|

Guitar 1 comes back in with:

e --------------------------------|
b --------------------------------|
g --------------------------------| x 4
d --2-4-4-4-2--22-4-4-4-2-2-2-----|
a --2-4-4-4-2--22-4-4-4-2-2-2-----|
e --0-2-2-2-0--00-2-2-2-0-0-0-----|

and Guitar 2 contiues with:

e -21--------19--|
b ----19--21-----|
g ---------------| x 8
d ---------------|
a ---------------|
e ---------------|

END


Текст, аккорды и табулатура для песни "Dead Stock Paradise", исполняет "Pillows".
Используемые в песне аккорды можно найти в разделе Как брать аккорды. Аккорды для шестиструнной гитары. Другие песни можно найти на нашем сайте, воспользовавшись алфавитным указателем вверху страницы.


 
Ошибка в тексте? Выделите ошибку и нажмите Ctrl+Enter