Band:   Pillows
Song:   Come Down
Tab:    Michel da Cruz

Part 1

e|-------------------------------------------|
b|-------------------------------------------|
g|-------------------------------------------|
D|------5----------3----------2--------------|
A|--3-3---3----1-1---1----0-0---4----4-4-4---|
E|-------------------------------------------|

Part 2

e|-------------------------------------------|
b|-------------------------------------------|
g|--5-5-5----3-3-3---------------------------|
D|--5-5-5----3-3-3----7-7-7----5-5-5---------|
A|--3-3-3----1-1-1----7-7-7----5-5-5---------|
E|--------------------5-5-5----3-3-3---------|

Part 3

e|-------------------------------------------|
b|-------------------------------------------|
g|-------2----3--------------2----3----------|
D|--5----2----3----3----5----2----3----------|
A|--5---------1----3----5---------1----------|
E|--3--------------1----3--------------------|
    |    |    |    |    |    |    |
    8x   8x   8x   8x   8x   8x   16x

Part 3 Continued:
Played along with 2nd and 6th chord Above (NEED 2ND GUITAR)

e|---------------|
b|---------------|
g|----9-7--------|
D|--------9-7----|
A|---------------|
E|---------------|

Order to play

Part 1 ....6x
Part 2 ....4x
Part 3 
Part 1 
Part 2
Part 1
Part 2
Part 1
Part 2
Part 1
Part 2
Part 3
Part 1 ....3x
Part 2
Part 3
Part 2 ....9x


Текст, аккорды и табулатура для песни "Come Down", исполняет "Pillows".
Используемые в песне аккорды можно найти в разделе Как брать аккорды. Аккорды для шестиструнной гитары. Другие песни можно найти на нашем сайте, воспользовавшись алфавитным указателем вверху страницы.


 
Ошибка в тексте? Выделите ошибку и нажмите Ctrl+Enter