#-----------------------------------------------------------------------------#
#-- File created with Instab - http://www.pconline.com/~smcarey/instab.html --#
#-----------------------------------------------------------------------------#

Author/Artist: Pillar
Title: Echelon
Album: Fireproof
Transcribed by: Sub Sonic Ghost
This is an awesome song with a really cool message.  I’m not sure if this is completely 
write, but its something.  Any commits, just e-mail me. Peace and luv. 
[email protected]

Its tuned standard 5-String- B, E, A, D, G

Layout:  
Verse Riff 5x (as shown)
Chorus Riff 2x (Ending with sustained low B)
Verse 2: (Verse one played 2x)
Chorus again (Same as first)
Guitar Solo (Chorus with detailed rhythm 2x)
Chorus/Extended Chorus: (play chorus 4x, the last two with slightly more detailed rhythm)
Washout: (Verse played till faded)

There you have it.  Peace.     GOOD LUCK fellow Christian Bassist’s 

------------------------------------------------------------------------------
-------------5^-7^-------------5^-7^-------------5^-7^--------5^-7^-----------
---------7^/---------------7^/---------------7^/------------------------------
------------------------------------------------------------------------------
--------------------------------------------------------33-33-----------------
-00--00------------00--00-------------55--55----------------------------------
 Verse: Follow Bass Drum, Play                                              

-------------------------------------|-|--------------------------------------
-------------------------------------|-|--------------------------------------
-------------------------------------|-|--------------------------------------
-2*-2*-2*-2*2*2*2*0*-----------------|-|--------------------------------------
-------------------3--3--3-----------|-|--------------------------------------
-0--0--0--0-0-0x0h3--------3-3-5-5-3-|0|--------------------------------------
 Chorus: *=can used to replace the lower notes, sustain low B, last time      

---------------------------------|--------------------------------------------
---------------------------------|--------------------------------------------
---------------------------------|--------------------------------------------
---------------------------------|--------------------------------------------
--------------5-3--33-3----------|--------------------------------------------
-0--00--0-0-0-----------3-3-5-5-3|-00---00------------------------------------
 Guitar Solo: Play Chorus, lower notes, following bass drum.            

--Remember these are just the basic riffs Kalel plays during this song, like any other 
tab its not meant to be perfect, its only meant to give the reader an idea of how the 
song is played.  It all depends on how you feel when your playing.--


Текст, аккорды и табулатура для песни "Echelon", исполняет "Pillar".
Используемые в песне аккорды можно найти в разделе Как брать аккорды. Аккорды для шестиструнной гитары. Другие песни можно найти на нашем сайте, воспользовавшись алфавитным указателем вверху страницы.


 
Ошибка в тексте? Выделите ошибку и нажмите Ctrl+Enter