A                  D                    G                 
E|-------------------|
B|-------------------|
G|---|--7------------------------|
D||------|--7----------------|--7----------------|--5----------------|
A||------|--7----------------|--5----------------|--5----------------|
E||------|--5------------------------|--3----------------|


  A                                                
--------------------------------------|
--------------------------------------|
--------------------------------------|
--7----------------|--7-7--7--7-7-7-7-7--7--7-7-7-|
--7----------------|--7-7--7--7-7-7-7-7--7--7-7-7-|
--5----------------|--5-5--5--5-5-5-5-5--5--5-5-5-|


                                                              
-------------------------------------------------|
-------------------------------------------------|
--7-7--7--7-7-7-7-7--7--7-7-7--------------------|
--7-7--7--7-7-7-7-7--7--7-7-7-|--5-5--5--5-5-5-5-5--5--5-5-5-|
--5-5--5--5-5-5-5-5--5--5-5-5-|--5-5--5--5-5-5-5-5--5--5-5-5-|
------------------------------|--3-3--3--3-3-3-3-3--3--3-3-3-|


                                                              
-------------------------------------------------|
-------------------------------------------------|
-------------------------------------------------|
--7-7--7--7-7-7-7-7--7--7-7-7-|--7-7--7--7-7-7-7-7--7--7-7-7-|
--7-7--7--7-7-7-7-7--7--7-7-7-|--7-7--7--7-7-7-7-7--7--7-7-7-|
--5-5--5--5-5-5-5-5--5--5-5-5-|--5-5--5--5-5-5-5-5--5--5-5-5-|


                                                              
-------------------------------------------------|
-------------------------------------------------|
--7-7--7--7-7-7-7-7--7--7-7-7--------------------|
--7-7--7--7-7-7-7-7--7--7-7-7-|--5-5--5--5-5-5-5-5--5--5-5-5-|
--5-5--5--5-5-5-5-5--5--5-5-5-|--5-5--5--5-5-5-5-5--5--5-5-5-|
------------------------------|--3-3--3--3-3-3-3-3--3--3-3-3-|


                                                                           
--------------------------------------------------|
--------------------------------------------------|
--------------------------------------------------|
--7-7--7--7-7-7-7-7--7--7-7-7----------|--5-------------------|
--7-7--7--7-7-7-7-7--7--7-7-7----------|-----5----------------|
--5-5--5--5-5-5-5-5--5--5-5-5-|--5--------0--------|--------3----5--------|


                                                                          
-------------------------------------------------|
----------------------------------|-------3-------------3----|
-----------0----------------------|---------4---------4------|
-------------2---------|--5-------------------|-----4-----------5--------|
---------------2-------|-----5----------------|---2-----------5----------|
--5--------------0-----|--------3----5-----------------------|


                                                                         
------------------------------------------------|
-------5--------------|-------3-------------3----|-------5--------------|
---------7------------|---------4---------4------|---------7------------|
-----7----------------|-----4-----------5--------|-----7----------------|
---5------------------|---2-----------5----------|---5------------------|
------------------------------------------------|


                                                              
-------------------------------------------------|
-------------------------------------------------|
------------------------------|--7-7--7--7-7-7-7-7--7--7-7-7-|
--7-7--7--7-7-7-7-7--7--7-7-7-|--7-7--7--7-7-7-7-7--7--7-7-7-|
--7-7--7--7-7-7-7-7--7--7-7-7-|--5-5--5--5-5-5-5-5--5--5-5-5-|
--5-5--5--5-5-5-5-5--5--5-5-5--------------------|


                                                              
-------------------------------------------------|
-------------------------------------------------|
-------------------------------------------------|
--5-5--5--5-5-5-5-5--5--5-5-5-|--7-7--7--7-7-7-7-7--7--7-7-7-|
--5-5--5--5-5-5-5-5--5--5-5-5-|--7-7--7--7-7-7-7-7--7--7-7-7-|
--3-3--3--3-3-3-3-3--3--3-3-3-|--5-5--5--5-5-5-5-5--5--5-5-5-|


                                                              
-------------------------------------------------|
-------------------------------------------------|
------------------------------|--7-7--7--7-7-7-7-7--7--7-7-7-|
--7-7--7--7-7-7-7-7--7--7-7-7-|--7-7--7--7-7-7-7-7--7--7-7-7-|
--7-7--7--7-7-7-7-7--7--7-7-7-|--5-5--5--5-5-5-5-5--5--5-5-5-|
--5-5--5--5-5-5-5-5--5--5-5-5--------------------|


                                                              
-------------------------------------------------|
-------------------------------------------------|
-------------------------------------------------|
--5-5--5--5-5-5-5-5--5--5-5-5-|--7-7--7--7-7-7-7-7--7--7-7-7-|
--5-5--5--5-5-5-5-5--5--5-5-5-|--7-7--7--7-7-7-7-7--7--7-7-7-|
--3-3--3--3-3-3-3-3--3--3-3-3-|--5-5--5--5-5-5-5-5--5--5-5-5-|


                                                                    
-------------------------------------------|
-------------------------------------------|
-------------------------------0-----------|
--------------------|--5---------------------2---------|
--------------------|-----5--------------------2-------|
--5--------0--------|--------3----5--------|--5--------------0-----|


                                                                         
------------------------------------------------|
----------------------|-------3-------------3----|-------5--------------|
----------------------|---------4---------4------|---------7------------|
--5-------------------|-----4-----------5--------|-----7----------------|
-----5----------------|---2-----------5----------|---5------------------|
--------3----5----------------------------------|


                                                  
-------------------------------------|
-------3-------------3----|-------5--------------|
---------4---------4------|---------7------------|
-----4-----------5--------|-----7----------------|
---2-----------5----------|---5------------------|
-------------------------------------|


                                                              
-------------------------------------------------|
-------------------------------------------------|
------------------------------|--7-7--7--7-7-7-7-7--7--7-7-7-|
--7-7--7--7-7-7-7-7--7--7-7-7-|--7-7--7--7-7-7-7-7--7--7-7-7-|
--7-7--7--7-7-7-7-7--7--7-7-7-|--5-5--5--5-5-5-5-5--5--5-5-5-|
--5-5--5--5-5-5-5-5--5--5-5-5--------------------|


                                                              
-------------------------------------------------|
-------------------------------------------------|
-------------------------------------------------|
--5-5--5--5-5-5-5-5--5--5-5-5-|--7-7--7--7-7-7-7-7--7--7-7-7-|
--5-5--5--5-5-5-5-5--5--5-5-5-|--7-7--7--7-7-7-7-7--7--7-7-7-|
--3-3--3--3-3-3-3-3--3--3-3-3-|--5-5--5--5-5-5-5-5--5--5-5-5-|


                                                              
-------------------------------------------------|
-------------------------------------------------|
------------------------------|--7-7--7--7-7-7-7-7--7--7-7-7-|
--7-7--7--7-7-7-7-7--7--7-7-7-|--7-7--7--7-7-7-7-7--7--7-7-7-|
--7-7--7--7-7-7-7-7--7--7-7-7-|--5-5--5--5-5-5-5-5--5--5-5-5-|
--5-5--5--5-5-5-5-5--5--5-5-5--------------------|


                                                                 
------------------------------|-------5------12-12-12-12-12-----|
------------------------------|-------5---------------------12--|
------------------------------|-------6-------------------------|
--5-5--5--5-5-5-5-5--5--5-5-5-|--7-7--7-------------------------|
--5-5--5--5-5-5-5-5--5--5-5-5-|--7-7--7-------------------------|
--3-3--3--3-3-3-3-3--3--3-3-3-|--5-5--5-------------------------|


                                                                           
--9----------9-9-9-9-7----------------------------|
------------------------|--9-7--------8-8-8-8-8-10--|--12------------8b---|
--------------------------------------------------|
--------------------------------------------------|
--------------------------------------------------|
--------------------------------------------------|


                                                            
---------------12-12-12-12-12-----|--9----------9-9-9-9-7--|
--10b---12b-------------------12---------------|
-----------------------------------------------|
-----------------------------------------------|
-----------------------------------------------|
-----------------------------------------------|


                                                                         
------------------------------------------------|
--9-7--------8-8-8-8-8-10--|--12------------8b---|--10----12------------|
------------------------------------------------|
------------------------------------------------|
------------------------------------------------|
------------------------------------------------|


                                                                    
-------------------------------------------|
-------------------------------------------|
-------------------------------0-----------|
--------------------|--5---------------------2---------|
--------------------|-----5--------------------2-------|
--5--------0--------|--------3----5--------|--5--------------0-----|


                                                                         
------------------------------------------------|
----------------------|-------3-------------3----|-------5--------------|
----------------------|---------4---------4------|---------7------------|
--5-------------------|-----4-----------5--------|-----7----------------|
-----5----------------|---2-----------5----------|---5------------------|
--------3----5----------------------------------|


                                                              
-------------------------------------|----------||
-------3-------------3----|-------5--------------|----------||
---------4---------4------|---------7------------|----------||
-----4-----------5--------|-----7----------------|----------||
---2-----------5----------|---5------------------|----------||
-------------------------------------|----------||

2 гитара
                                                 
E------------------|
B------------------|
G------------------|
D------------5-5-5/|
A|----5-5-5/|--7-7--7--5-5-5/7-7--7--------|
E------------------|


                                                              
-------------------------------------------------|
-------------------------------------------------|
-------------------------------------------------|
--4-4--4--5-5-5/4-4--4--7-7-7/|--5-5--5--7-7-7/5-5--5--5-5-5/|
-------------------------------------------------|
-------------------------------------------------|


                                                      
-----------------------------------------|
-----------------------------------------|
-----------------------------------------|
--2--------------------------------5-5-5-|
----------------5-5-5-|--7-7--7--5-5-5-7-7--7--------|
-----------------------------------------|


                                                              
-------------------------------------------------|
-------------------------------------------------|
-------------------------------------------------|
--4-4--4--5-5-5-4-4--4--7-7-7-|--5-5--5--7-7-7-5-5--5--5-5-5-|
-------------------------------------------------|
-------------------------------------------------|


                                                          
---------------------------------------------|
---------------------------------------------|
---------------------------------------------|
--2--------5-2-5-2---------------------5-5-5-|
--------------------5-5-5-|--7-7--7--5-5-5-7-7--7--------|
---------------------------------------------|


                                                              
-------------------------------------------------|
-------------------------------------------------|
-------------------------------------------------|
--4-4--4--5-5-5-4-4--4--7-7-7-|--5-5--5--7-7-7-5-5--5--5-5-5-|
-------------------------------------------------|
-------------------------------------------------|


                                                                      
-------------------
-------------------|
-------------------|
--2----------------|
-------------------|
-------------------|
все разложено по тактам

riff:  A     F     G  A  
A                        E
Он войдет никого не спросив,
G                       A
Ты полюбишь его не сразу.
A                      F
С первого взгляда он некрасив,
 G                A
Со второго - безобразен.
                  Hm           G
(припев #1) Только речи его горячи,
                   D              A
            Только прочь сомнения, прочь!
                  Hm                G
            Самый звонкий крик - тишина,
                   D            A     
            Самый яркий свет - ночь.
                 

Все бы было иначе когда бы
Можно было совсем не дышать.
Все бы было иначе когда бы
Он не знал как ты хороша.

(припев #1)

Он озяб, его гонит луна,
Он во власти неведомых сил.
И теперь с него будет сполна:
Будь что будет, спаси-пронеси.

(припев #2) Ты не знаешь как сходят с ума,
            Как вода разольется точь в точь.
            Самый звонкий крик - тишина,
            Самый яркий свет - ...


Текст, аккорды и табулатура для песни "Самый звонкий крик - тишина", исполняет "Пикник".
Используемые в песне аккорды можно найти в разделе Как брать аккорды. Аккорды для шестиструнной гитары. Другие песни можно найти на нашем сайте, воспользовавшись алфавитным указателем вверху страницы.


 
Ошибка в тексте? Выделите ошибку и нажмите Ctrl+Enter