G----------------7----------|
D--------------7---7h9------| repeat 6x
A------------7---------7----|
E---0-00-00-----------------|

     G------                     G------
     D------                     D------
     A------                     A---5--
     E---0--                     E------
Now that you've decieved me  And played my name around

     G------                     G------
     D------                     D------
     A---0--                     A---0--
     E------                     E------
And hung those nasty fliers  On all the buildings in town

     G------                     G------
     D------                     D------
     A------                     A---3--
     E---1--                     E------
Dribbled my posessions       In a ring around the earth

     G------                     G------
     D------                     D------
     A---6--                     A---7--
     E------                     E---0--
Bought and sold my self-control For less than it was worth


intro 2x

     G------                     G------
     D------                     D------
     A------                     A---5--
     E---0--                     E------
Now I know the reasons        For bein so forlorned

     G------                     G------
     D------                     D------
     A---0--                     A------
     E------                     E---0--
I'll pick you up 8 as usual   Listen for my horn

Guitar Solo.. Slow(about 80)in 2/4 time... the note changes on 1
     G----------------------------------------------
     D----------------------------------------------
     A---2-----6---0-5-1-0-1---6-4-3-2-6-0-----2-4--
     E-3---1-0---3-----------3-------------4-2-----2

     G----------------------------------------------
     D----------------------------------------------
     A-5-4-5-4-6-------0-1-----6-6-5---3---1-0---3--
     E-----------0-2-3-----4-2-------4---0-----4---4

     G-------------------------
     D-------------------------
     A-0-1-2-3-4-3-2-1-----1-6-
     E-----------------4-4-----


Intro 6x end on open e



the bass line during the solo is the base note of each chord the piano plays...
there are a few small bass runs near the end which i haven't figured out yet..
but when i do i'll tab them...

Heffy


Текст, аккорды и табулатура для песни "Horn", исполняет "Phish".
Используемые в песне аккорды можно найти в разделе Как брать аккорды. Аккорды для шестиструнной гитары. Другие песни можно найти на нашем сайте, воспользовавшись алфавитным указателем вверху страницы.


 
Ошибка в тексте? Выделите ошибку и нажмите Ctrl+Enter