Phish - End Of Session
Tabbed By: Mike Parker
EMail: [email protected]
Album: The Story Of The Ghost x - muffled strings
( ) - harmonic
 h - hammer on
 p - pull off


Intro


|--------------------------------------------2--------------------2--------2--2--|
|---------x--x--x--x-------------4--2--------4--------4--2--------2--------4p(2)-|
|--organ----------------------------2-----------------2-----------2--------2-----|
|---------------------2--(2)--------------2--------2-----------2--------2-(2)----|
|--------------------------------------------------------------------------------|
|--------------------------------------------------------------------------------|


|--(2)-----2--------2--------2-----------------------------------------------------------|
|--(4)-----2--------5--------4--2--------5--4--------2--------5--4-----5-----------5--4--|
|--(2)--------------------------------------------------------------------4--------------|
|--(2)--2--------2-----2-----------2--------------2--------2--------------------2--------|
|----------------------------------------------------------------------------------------|
|----------------------------------------------------------------------------------------|


Chorus                                             Played rest of the song
|-------------------------------------------------|-----------------------------------------|
|--(4)--5-----------5--4--------5-----------5--4--|--5-----------5--4-----5-----------5--4--|
|----------4-----------------------4--------------|-----4--------------------4--------------|
|----------------2-----------2-----------2--------|-----------2--------------------2--------|
|-------------------------------------------------|-----------------------------------------|
|-------------------------------------------------|-----------------------------------------|


Текст, аккорды и табулатура для песни "End Of Session", исполняет "Phish".
Используемые в песне аккорды можно найти в разделе Как брать аккорды. Аккорды для шестиструнной гитары. Другие песни можно найти на нашем сайте, воспользовавшись алфавитным указателем вверху страницы.


 
Ошибка в тексте? Выделите ошибку и нажмите Ctrl+Enter