-------------------------------------------------------------------------------
			  WISHING WELL - Phantom Planet
-------------------------------------------------------------------------------

By:Chris Schneider

head
e|--------------------------------------|
B|--------------------------------------|
G|--------------------------------------|
D|---3---3---3---3---3---3---3---3-0----|
A|---2---2---2---2---2---2---2-3-2------|
E|--------------------------------------|


1st verse (repeat 2x) 
e|-------------------------------------|
B|-------------------------------------|
G|-------------------------------------|
D|---3---3---3---3---3---3---3---3-0---|
A|---2---2---2---2---2---2---2-3-2-----|
E|---4(don't mute this)----------------|


2nd verse
e|---------------------------------------------------------------------------|
B|---------------------------------------------------------------------------|
G|---------------------------------------------------------------------------|
D|---3--3--3--3--3--3--1--0--3--3--3--3--3--3--3--3--3--3--3--3--3--3--3--3--|
A|---2--2--2--2--2--2--2--2--4--4--4--4--3--3--3--3--4--4--4--4--3--3--2--2--|
E|---4-----------3---1-------------------------------------------------------|

(repeat 2x)
e|----------------------------------------|
B|----------------------------------------|
G|----------------------------------------|
D|---3---3---3---3-0-3---3---3---3--0-----|
A|---2---2---2-3-2---2---2---2-3-2--------|
E|---4---4---4---4---4---4---4---4--------|


Chorus:
The chord changes are C/G Am F C/G Am D F-F#-G-G#-A-F C/G

The transition from the 4th measure to the 5th (C/G to the Am) goes like this
e|----0----0----0----|
B|----1----1----1----|
G|----0----0----2----|
D|----2----0----2----|
A|----3----2----0----|
E|----3----3----x----|


Bridge:
C/G G# C/G G# Am F-F#-G-G#-A-F

Note:  There isn't really a guitar part in the verse.  That's just kind of a
mix of the piano and bass.  Make up your own verse if you want.

===============================================================================


Текст, аккорды и табулатура для песни "Wishing Well", исполняет "Phantom Planet".
Используемые в песне аккорды можно найти в разделе Как брать аккорды. Аккорды для шестиструнной гитары. Другие песни можно найти на нашем сайте, воспользовавшись алфавитным указателем вверху страницы.


 
Ошибка в тексте? Выделите ошибку и нажмите Ctrl+Enter