Phantom Planet - Knowitall

Ok, this one isn't perfect but its real close and it works. Feel free to email 
to me, Rob Wilson @ [email protected] . This song is awesome, and I couldn't find tabs for it 
So I made my own: here you go.

Intro- Bass

A----------------------------------------------------------------------------|
B----------------------------------------------------------------------------|
G----------------------------------------------------------------------------|
D-----------------------------------------62-2-2-2--2h4---------------------|
A--------------------------------4-4-4-4------------------0-0-0-0-0h2--------|
E-0-0-0-0-4-4-4-4-0-0-0-0-4-4-4-4------------------------------------2-2-2-2-|

----------------------------------------------------------|
----------------------------------------------------------|
----------------------------------------------------------|
-----------62-2-2-2—2h4----------------------------------|
-------------------------------0-0-0-0—0h2----------------|
0-0-0-0----------------------------------------2-2-2-2----|


Verse- Bass

--------------------------------------------------------|
--------------------------------------------------------|
--------------------------------------------------------|
-----------62-2-2-2—2h4--------------------------------|  x6
-------------------------------0-0-0-0—0h2--------------|
0-0-0-0----------------------------------------2-2-2-2--|

Pre-Chorus

--------------------|
--------------------|
--------------------|     Did you say, something I'm, sorry I, apologize
--------------------|
--------------------|
0-0---2-2--0-0--2-2-|

-----------------------------------------------------------|
-----------------------------------------------------------|
-----------------------------------------------------------|
-----------62-2-2-2—2h4-----------------------------------|
-------------------------------0-0-0-0—0h2-----------------|
0-0-0-0----------------------------------------2-2-2-2-----|

Chorus- Guitar Distortion: listen to song for rhythm

-----------------------------------------------------------------|
-----------------------------------------------------------------|
------------------------------8-8-8-8-8---8-8-8-8-8--------------|
--2-2-2-2-2-------6-6-6-6-6---8-8-8-8-8---8-8-8-8-8--------------|
--2-2-2-2-2-------6-6-6-6-6---6-6-6-6-6---6-6-6-6-6--------------|
--0-0-0-0-0-------4-4-4-4-4--------------------------------------|
 ...I ......can .......tell..............

------------------------------------------------------------------------------|
------------------------------------------------------------------------------|
-8-8-8-8-8--------------------------------------------------------------------|
-8-8-8-8-8-----7-7-7-7-7---7-7-7-7-7----2-2-2-2-2-----6-6-6-6-6---2-2-2-2-2---|
-6-6-6-6-6-----7-7-7-7-7---7-7-7-7-7----2-2-2-2-2-----6-6-6-6-6---2-2-2-2-2---|
---------------5-5-5-5-5---5-5-5-5-5----0-0-0-0-0-----4-4-4-4-4---0-0-0-0-0---|

After ...........this there's nothing ..............else

-------------------------------------------------------|
-------------------------------------------------------|
------6-6-6-6---------4-4-4-4-4----4-4-4-4-4-----------|
------6-6-6-6--6-6----4-4-4-4-4----4-4-4-4-4-----------|
------4-4-4-4--6-6----2-2-2-2-2----2-2-2-2-2-----------|
---------------4-4-------------------------------------|
               (?)
Nothing you can't ...solve....

------------------------------------------------------------------------|
------------------------------------------------------------------------|
-4-4-4-4-4--------------------------------------------------------------|
-4-4-4-4-4------7-7-7-7-7--------2-2-2-2-2------6-6-6-6-6----2-2-2-2-2--|
-2-2-2-2-2------7-7-7-7-7--------2-2-2-2-2------6-6-6-6-6----2-2-2-2-2--|
----------------5-5-5-5-5--------0-0-0-0-0------4-4-4-4-4----0-0-0-0-0--|

If you're ........such a know it ...all


Текст, аккорды и табулатура для песни "Knowitall", исполняет "Phantom Planet".
Используемые в песне аккорды можно найти в разделе Как брать аккорды. Аккорды для шестиструнной гитары. Другие песни можно найти на нашем сайте, воспользовавшись алфавитным указателем вверху страницы.


 
Ошибка в тексте? Выделите ошибку и нажмите Ctrl+Enter