California
By Phantom Planet
The Guest
Guitar/piano tab by jj

most of the tabs out there are pretty good, but not too complete. this is pretty
much the whole song...Its not perfect but its close, just figure out the
strumming patterns and itll sound good.


C#m – 046654
Asus- 002200
Em  - 022100

Intro:

   C#m                       Asus   Em    Asus    Em      Asus    Em
-------------------------------------------------------------------
-------------------------------------------------------------------
-------------------------------------------------------------------
---0-3-5-3-5--0-3-5-3-5---0-3-5-3-5-7-3---0------------------------
--------------------------------------------3-3-1-1-3-5------------
-------------------------------------------------------------------


C#m 	                                                  Asus      Em
we’ve been on the run, drivin in the sun, looking out for number one
   Asus              Em               Asus              Em
California here we come, right back where we started from
C#m
Well hustlers grab your guns this shadow weighs a ton 
              Asus  Em
drivin down the 101.  
Asus              Em               Asus              Em
California here we come right back where we started from
          Em           Asus          Em       Asus
Californiaaaaaaaaaaaaaaaaaaaaa, here we coooooome

-----------------------------------------------------------------------
C#m 			                        Asus      Em
On the stereo, listen as we go, nothins gonna stop me now      
   Asus              Em               Asus              Em
California here we come, right back where we started from
C#m 	                                               Asus      Em
Pedal to the floor thinking of the roar, gotta get us to the show       
Asus              Em               Asus              Em
California here we come right back where we started from
            Em           Asus          Em       Asus
Californiaaaaaaaaaaaaaaaaaaaaa, here we coooooome
	 Em            Em        Em       Asus
Californiaaaa Californiaaaa, here we coooome       ohhh


--------------------------------------
--------------------------------------
--------------------------------------
-0-3-5-3-5--0-3-5-3-5---0-3-5-3-5-7-3-
--------------------------------------
--------------------------------------

---------------------------------------
---------------------------------------
13-11-11-9-9-11-13—--13-11-11-9-9-11-13
---------------------------------------
---------------------------------------
---------------------------------------


--------------------------------------
--------------------------------------
--------------------------------------
-0-3-5-3-5--0-3-5-3-5---0-3-5-3-5-7-3-
--------------------------------------
--------------------------------------


-------------------------------------------------------
------------------------------------------------(5-9-10)
(13/12)-13-11-11-9-9-11-13--13-11-11-9-9-6-4-----------    
-------------------------------------------------------               
-------------------------------------------------------
-------------------------------------------------------
	 
0-0-0-0--0-0-0-0-0-0-0-0-0-0-0-0--0-0-0-0-0-0-0--
-0-0-0-0-10-9-7-5-9-7-5-4-2-4-5-7-10-9-7-5-2-4-5-
-------------------------------------------------
-------------------------------------------------
-------------------------------------------------
-------------------------------------------------
	  

     Em           Em       Em      Asus
California, California here we coooome 
     Em           Em       Em      Asus  
California, California here we coooome
     Em           Em       Em      Asus
California, California here we cooooooooome   oohhho


------------
------------
-0-3-5-3-5--
------------
------------
------------


Текст, аккорды и табулатура для песни "California", исполняет "Phantom Planet".
Используемые в песне аккорды можно найти в разделе Как брать аккорды. Аккорды для шестиструнной гитары. Другие песни можно найти на нашем сайте, воспользовавшись алфавитным указателем вверху страницы.


 
Ошибка в тексте? Выделите ошибку и нажмите Ctrl+Enter