SONG NAME -California
     BAND NAME - Phantom Planet
-------------------------------------------------------------------------------
here is the intro and pretty much the solo. and the chord prog.. i got tired of seeing 
incorrect ways of this being tabbed but im pretty sure this will be all correct except 
maybe the transition between C#m to B


Chord Legend#
   C#m      B	Asus	Em
E---4--------2------------0-----------0---------------------------------------
B---5--------2------------0-----------0---------------------------------------
G---6--------4------------2-----------1---------------------------------------
D---6--------4------------2-----------2---------------------------------------
A---4--------2------------0-----------2---------------------------------------
E-------------------------x-----------0---------------------------------------

INTRO:SOLO

E-----------9----9----------------9-----9-----------------------9-----9----11---
B---9--12---12-----------9--12---12------------------9--12---12----------12-----
G-------------------------------------------------------------------------------
D-------------------------------------------------------------------------------
A-------------------------------------------------------------------------------
E-------------------------------------------------------------------------------

E-------------------------------------------------------------------------------
B----9---------------------9--------9---------------------9---------------------
G-------11-11--9-9--11------------11-11--9-9--11--------------------------------
D-------------------------------------------------------------------------------
A-------------------------------------------------------------------------------
E-------------------------------------------------------------------------------

california

C#m       
we've been on the run driving in the sun
		       B	
looking out for number one
  Asus		Em                 Asus		       Em
california here we come  right back where we started from
C#m 							    B
well hustlers grab your guns this shadow weighs a ton driving down the 101
  Asus	    	Em	           Asus	        Em	     
california here we come  right back where we started from
 Asus	


Текст, аккорды и табулатура для песни "California", исполняет "Phantom Planet".
Используемые в песне аккорды можно найти в разделе Как брать аккорды. Аккорды для шестиструнной гитары. Другие песни можно найти на нашем сайте, воспользовавшись алфавитным указателем вверху страницы.


 
Ошибка в тексте? Выделите ошибку и нажмите Ctrl+Enter