Artist : Tom Petty & The Heart Breakers
Title : In to The Great Wide Open

Tabbed By Jono on the 18th Of Sept 2000

Regular Timing (4/4) and Tuning (EADG)


Intro

|--------------------------------|
|--------------------------------|
|--------------------------------|
|0---0---0---0---0---0---0---0---|   x4

Verse

|--------------------------------|
|--------------------------------|
|--------------------------------|
|0---0---0---0---0---0---0---0---|   x4


|--------------------------------|
|--------------------------------|
|0---0---0---0-------------------|
|----------------3---3---3---3---|

|--------------------------------|
|--------------------------------|
|--------------------------------|
|2---2---2---2---3---3---3---3---|

|0---0---0---0-------------------|
|----------------3---3---3---3---|
|--------------------------------|
|--------------------------------|

|--------------------------------|
|--------------------------------|
|3---3---3---3---3---3---3---3---|
|--------------------------------|

Bridge

|--------------------------------|
|--------------------------------|
|----------3---------------------|
|------3-3---3-3-3---------------|   

Repeat The Verse and Bridge

Then The Chorus



|--------------------------------|  
|-----------------0----0--0--0---|            
|----------3---------------------|	
|------3-3---3-3-----------------|   

Beginning Of Part 1

|--------------------------------|
|--------------------------------|
|----------------3---3---3---3---|
|3---3---3---3-------------------|   

|--------------------------------|
|0---0---0---0---0---0---0---0---|
|--------------------------------|
|--------------------------------|   

End Of Part 1

|--------------------------------|
|--------------------------------|
|----------------2---2---2---2---|
|3---3---3---3-------------------|   

|--------------------------------|
|0---0---0---0-------------------|
|----------------0---0---0---0---|
|--------------------------------|   


Play Part 1 Again Followed By:

|--------------------------------|
|--------------------------------|
|--------------------------------|
|3---3---3---3---1---1---1---1---|

Then:

|--------------------------------|
|--------------------------------|
|--------0---0---0---------------|
|0---0---------------------------|   

Then Play The Bridge x2


Solo:

|--------------------------------|
|2---2---2---2---1---1---1---1---|
|--------------------------------|
|--------------------------------|   

|--------------------------------|
|0---0---0---0-------------------|
|----------------4---4---4---4---|
|--------------------------------|   

|--------------------------------|
|--------------------------------|
|--------------------------------|
|0---0---0---0---2---2---2---2---|   

|--------------------------------|
|--------------------------------|
|----------------0---0---0---0---|
|3---3---3---3-------------------|

Then Verse And Bridge

Last Verse: (His Leather Jacket had Chains....)


|--------------------------------|
|--------------------------------|
|--------------------------------|
|0---0---0---0---0---0---0---0---|   x4

|--------------------------------|
|--------------------------------|
|--------------------------------|
|2---2---2---2---3---3---3---3---|   

|--------------------------------|
|--------------------------------|
|0---0---0---0---3---3---3---3---|
|--------------------------------|   

|0---0---0---0-------------------|
|----------------3---3---3---3---|
|--------------------------------|
|--------------------------------|

|--------------------------------|
|--------------------------------|
|3---3---3---3---3---3---3---3---|
|--------------------------------|

Bridge Then

Chorus x2

Finish Off With Bridge x2

That's It

E-mail any requests suggestions or corrections to [email protected]


Текст, аккорды и табулатура для песни "Into The Great Wide Open", исполняет "Petty Tom".
Используемые в песне аккорды можно найти в разделе Как брать аккорды. Аккорды для шестиструнной гитары. Другие песни можно найти на нашем сайте, воспользовавшись алфавитным указателем вверху страницы.


Слушать онлайн Into The Great Wide Open


Tom Petty And The HeartbreakersInto The Great Wide Open на Яндекс.Музыке


 
Ошибка в тексте? Выделите ошибку и нажмите Ctrl+Enter