---------------------------------------------------------------------
	Free Fallin' - Tom Petty (and the Heartbreakers)
---------------------------------------------------------------------

By: Ben Grimes

CAPO III

This is kinda what the rhythm is like:
e|--2---3---3-2-0----------------------------------------------------
B|--3---3---3-3-3----------------------------------------------------
G|--2---2---2-3-2----------------------------------------------------
D|-(0)-(0)-(0-0-0)---------------------------------------------------
A|-------------------------------------------------------------------
E|-------------------------------------------------------------------

(0) = optional note (I think it sounds better)

Repeat these chords through the whole song w/
a few variations in the rhythm - - you will have
to listen to the song to differentiate.

Qhestions - Comments: [email protected]


Текст, аккорды и табулатура для песни "Free Fallin", исполняет "Petty Tom".
Используемые в песне аккорды можно найти в разделе Как брать аккорды. Аккорды для шестиструнной гитары. Другие песни можно найти на нашем сайте, воспользовавшись алфавитным указателем вверху страницы.


Слушать онлайн Free Fallin [in the Style of Tom Petty]


The Karaoke UniverseFree Fallin [in the Style of Tom Petty] на Яндекс.Музыке


 
Ошибка в тексте? Выделите ошибку и нажмите Ctrl+Enter