Некоторые аккорды:
   Dm7   H0   C7+   Am/G  
1E--1---------0-----0-
2H--1-----3---0-----1-
3G--2-----2---0-----2-
4D--0-----3---2-----2-
5A--------2---3-------
6E------------------3-

Фактура аккомпанемента:
          Dm7           G7             C7+             Am
1E-----------------1--------1------------------ 0------------0------------0------------0---------------1---
2H-----------------1--------0-------------------0------------1------------3------------1---------------1---
3G-----------------2--------0-------------------0------------2------------1------------2---------------3---
4D---------0-----------------------------------------------------------------------------------------------
5A--------------------------------------3---------------0------------------------------0-------------------
6E----------------------3----------------------------------------------0---------------------3------1-------
   Хочешь, я прибегу            Хочешь, я прилечу................твоих        глаз, забывших   про смех.....




        Dm7    G7        C7+       Am
Хочешь, я убегу, хочешь, я прилечу
       Dm7    G7     C7+        A7 
Мне любую беду отвести по плечу
      Dm              E7     Am    Am/G      F
От тебя, от твоих глаз, позабывших     про смех
    Dm          H0        E7           A7
Я смогу за двоих  против горестей всех

Только ты позови поздней ночью ли днем
Не скажу о любви, не спрошу ни о чем
Просто я подниму тебя к дальней звезде
Той, где мне одному синий ветер свистел.

Где тебя не найдут ни обиды, ни ложь
Горы горьких минут за мгновенье сожжешь
И забудешь о них и не вспомнишь потом
Все смогу за двоих, если будем вдвоем.


Хочешь, я убегу, хочешь, я прилечу
Мне любую беду отвести по плечу
От тебя, от твоих глаз, позабывших     про смех
Я смогу за двоих  против горестей всех


Текст, аккорды и табулатура для песни "Хочешь, я прибегу", исполняет "Петлюра Виктор".
Используемые в песне аккорды можно найти в разделе Как брать аккорды. Аккорды для шестиструнной гитары. Другие песни можно найти на нашем сайте, воспользовавшись алфавитным указателем вверху страницы.


 
Ошибка в тексте? Выделите ошибку и нажмите Ctrl+Enter