Tabbed by: Patrick McFadden ([email protected])
Tuning: Standard (E A D G B E)


Capo on 2nd Fret. All positions and chord formations are relative to capo.

Intro (fingerpicked)

       G          Bm               C                  G
E|--3-----3-------2-------2--------0------0-----------3------3--------||
B|----0-----0--------3-------3--------1------1-----------0-----0------||
G|------0---------------4---------------0------------------0----------||
D|--------------------------------------------------------------------||
A|----------------2----------------3----------------------------------||
E|--3-------------------------------------------------3---------------||

       C          G            C        D          G

E|--0----0--------3-----3------0--------2----------3------------------||
B|----1-----1-------0-----0------1--------3--------0------------------||
G|------0--------------0-----------0--------2------0------------------||
D|-------------------------------------------------0------------------||
A|--3--------------------------3--------0----------2------------------||
E|----------------3--------------------------------3------------------||

There's the intro to it. I was going to tab out the rest of the song, but this
website (http://members.cox.net/billandleann/puff.htm) has it, so check it out
to see the chords used etc.Enjoy!


Текст, аккорды и табулатура для песни "Puff The Magic Dragon", исполняет "Peter Paul And Mary".
Используемые в песне аккорды можно найти в разделе Как брать аккорды. Аккорды для шестиструнной гитары. Другие песни можно найти на нашем сайте, воспользовавшись алфавитным указателем вверху страницы.


 
Ошибка в тексте? Выделите ошибку и нажмите Ctrl+Enter