----------------------------------------------------------------------------
			   So beutiful By Pete Murray
----------------------------------------------------------------------------
Tabbed by: Nick H
Tuning:
You can play it like this with standing tuning but, you can put a capo on
the 3rd fret and play the same chords shapes up two frets from the capo

Intro and Verse        
e|-------------0-------------0-------------------------|
B|----0--------3-------------3--------0----------0-----|
G|----0--------0-------------0--------2----------0-----|
D|----2--------2-------------2--------2----------2-----| 
A|----2--------0-------2-3---3------0-0----------2-----|
E|----0--------0----------------------------3-32-0-----|
      Em       Csus          C       Asus        Em
Pre Chorus
e|--------------------------|
B|--0--------0h1--1---------|
G|--0--------2----2---------|
D|--2--------2----2---------|
A|--2--------0----0---------|
E|--0-----------------------|
    Em       Asus/Am
Chorus					       
e|-------------0----0-----0-----0---0-----------------|
B|----0--------0h1--1-----3-----1---3-----------------|
G|----0--------2----2-----2-----0---2-----------------|
D|----2--------2----2-----0-----2---0-----------------|
A|----2--------0----0-----------3---------------------|
E|----0--------0----0-----------0---------------------|
      Em       Asus/Am    Dsus  C/Dsus

h  hammer-on

Order:

Verse
Chorus
[no guitar for a while here]
Verse
Chorus
Verse
Chorus

Thanks and have lots of fun!!!!!


Текст, аккорды и табулатура для песни "So Beutiful", исполняет "Pete Murray".
Используемые в песне аккорды можно найти в разделе Как брать аккорды. Аккорды для шестиструнной гитары. Другие песни можно найти на нашем сайте, воспользовавшись алфавитным указателем вверху страницы.


Слушать онлайн So Beautiful


Pete MurraySo Beautiful на Яндекс.Музыке


 
Ошибка в тексте? Выделите ошибку и нажмите Ctrl+Enter