Игла..
           Em              C              Am           D
   --------0---------------0-------------0-------------2-----                        
   ------0---0-----------1---1---------1---1---------3---3---                     
   ----0-------0-------0-------0-----2-------2-----2-------2-                  
   --2---------------2-------------2-------------0-----------                
   --2---------------3-------------0-------------0-----------                
   ----------------------------------------------------------
           C                G7             Am           Em 
   -------0-------------------------------0------------------
   -----1---1--------------0------------1---1-----------0----
   ---0-------0----------0---0--------2-------2-------0---0--
   -2------------------0-------0----2---------------2-------2
   -3----------------2--------------0-------------2----------
   ------------------3----------------------------0----------
Куплет-1

   Em             C   
   Ветер не дует лес не шумит
   Am                 D   
   Сердце не бьется оно как гранит
        C              G7
   В руке моей шприц игла как струна 
    Am                    Em
   Играет на нервах, жить дальше нельзя

Куплет-2   
   И снова укол этот делаю в вену
   И теплый раствор превращается в пену
   Проносится волнами в теле моем
   И сердце сгорает холодным огнем

   Проигрыш

Куплет-3
   Я онемел не могу говорить 
   что тебя больше не хочу я любить
   Как мы гуляли не хочу вспоминать
   Оставьте меня я буду умирать
И т.д. 


Текст, аккорды и табулатура для песни "Игла", исполняет "Песни у костра".
Используемые в песне аккорды можно найти в разделе Как брать аккорды. Аккорды для шестиструнной гитары. Другие песни можно найти на нашем сайте, воспользовавшись алфавитным указателем вверху страницы.


 
Ошибка в тексте? Выделите ошибку и нажмите Ctrl+Enter