ноты A A C A D A E D   C C E C G C E C   G G B G C G D C   F F A F C F C H
1  |-------------0---|-----0---3---0---|-----------------|-----------------|
2  |-----1---3-----3-|-1-1---1---1---1-|-----0---1---3-1-|---------1---1-0-|
3  |-2-2---2---2-----|-----------------|-0-0---0---0-----|-----2-----------|
4  |-----------------|-----------------|-----------------|-3-3---3---3-----|
5  |-----------------|-----------------|-----------------|-----------------|
6  |-----------------|-----------------|-----------------|-----------------|

ноты A A A   A G C   A A A   A G E   A A A   A B C   A A A AA AA
1  |-------|-------|-------|-------|-------|-------|-------------|
2  |-------|-----1-|-------|-------|-------|-----1-|-------------|
3  |-2-2-2-|-2-0---|-2-2-2-|-2-0---|-2-2-2-|-2-0---|-2-2-2-22-22-|
4  |-------|-------|-------|-----2-|-------|-------|-------------|
5  |-------|-------|-------|-------|-------|-------|-------------|
6  |-------|-------|-------|-------|-------|-------|-------------|

ноты A E A C A B  A C A B  G   A E A C GG AA A
1  |---0---------------------|---0-------------|
2  |-------1--------1--------|-------1---------|
3  |-2---2---2-3--2---2-3--0-|-2---2---00-22-2-|
4  |-------------------------|-----------------|
5  |-------------------------|-----------------|
6  |-------------------------|-----------------|


Текст, аккорды и табулатура для песни "Тема из к/ф "Mortal Combat"", исполняет "Песни из кино и мультфильмов".
Используемые в песне аккорды можно найти в разделе Как брать аккорды. Аккорды для шестиструнной гитары. Другие песни можно найти на нашем сайте, воспользовавшись алфавитным указателем вверху страницы.


 
Ошибка в тексте? Выделите ошибку и нажмите Ctrl+Enter