----------|--------0---------------0--------|
|----1---1---0----0---|------1------1--------0--------0-|
|----2---2---2----1---|----2--------2------2----------1-|
--------------------------------|
|-0-------------------|-0-------------------------------|
|------3---1---0------|----------3------1----------0----|


------0---|-0----5--3--1--------------------|
|---1---1---1---------|---1-----------0---3---1---------|
|---2---2---2---------|---2-----------2-----------------|
-----------0--------------------|
|-0-------0-----------|-0-------------------------------|
|-----0-------0-----------------------------|


|------0---0---------0|-3--3----------0-3-8-7-5---4-----|
|-0------3---------1---1--------------------|
|---1---------2-1-2---|------0--2-----------7-5---------|
|---2---------------------------------------|
|----------0----------|-3-------------------------------|
|-0-----------------------------------0-----|


---0--8---7-8-7--5----0-|-5---3-5-3--1---1--|
|-3---0---0---------5---------------|---2----------0----|
|-4-2---3---4-------5---------------|---0----------2----|
------------------------|-----2---0---------|
------0-------0---------|-0-----------------|
|---2---3---4------------------0------------|


|-0----3-1-0------------0----------------0----|
|---1---------3-0-1-----1--------0------------|
|---2----------------2-----------1------------|
|-2-------------------------------------------|
---------0------------------------|
|----------0--------------3-1-0-----2----4----|


|-0----3-1-0----------------0-----5-~---------|
|---1---------3-1-0---------3-----5-~---------|
|---2------------------2----1-----5-~---------|
|-2-------------------------------------------|
-----------0----------0-----------|
|----------0----------------0-----------------|


Летит паровоз по долинам, по взгорьям,
Летит он неведомо куда.
Мальчонка назвал себя жуликом и вором,
И жизнь его -- вечная игра.

  Постой, паровоз, не стучите, колеса,
  Кондуктор, нажми на тромоза.
  Я к маменьке родной с последним приветом
  Хочу показаться на глаза.

Не жди меня, мама, хорошего сына,
Твой сын не такой, как был вчера.
Меня засосала опасная трясина,
И жизнь моя -- вечная игра.

  А если посадят меня за решетку,
  В тюрьме я решетку пробью,
  И пусть луна светит своим продажным светом,
  А я все равно убегу.

А если заметит тюремная стража,
Тогда я, мальчишечка, пропал.
Тревога и выстрел, и вниз головою
Под стену тюремную упал.

  Я буду лежать на тюремной кровати,
  Я буду лежать и умирать.
  И вы не придете, любезная мамаша,
  Меня перед смертю целовать.

Летит паровоз по долинам, по взгорям,
Летит он неведомо куда.
Я к маменьке родной, больной и голодной,
Спешу показаться на глаза.

  Постой, паровоз, не стучите, колеса,
  Есть время заглянуть судьбе в глаза.
  Еще не поздно сделать остановку.
  Кондуктор, нажми на тормоза.


Текст, аккорды и табулатура для песни "Постой, паровоз (к/ф "Операция "Ы" и другие приключения Шурика")", исполняет "Песни из кино и мультфильмов".
Используемые в песне аккорды можно найти в разделе Как брать аккорды. Аккорды для шестиструнной гитары. Другие песни можно найти на нашем сайте, воспользовавшись алфавитным указателем вверху страницы.


 
Ошибка в тексте? Выделите ошибку и нажмите Ctrl+Enter