3 Libras-A Perfect Circle
Mer De Noms

C# F# B E G# C#

Viola Intro

Fig 1.

e---------------------------------------------
b-3------3--3------3--3------3---7-------7----
g----0---------0---------0----------0---------
d---------------------------------------------
a-3----3----3----3----3----3-----7----7-------
e---------------------------------------------

e---------------------------------------------
b-3------3--3------3--10-------10--7-------7--
g----0---------0----------0-----------0-------
d---------------------------------------------
a-3----3----3----3----10----10-----7----7-----
e---------------------------------------------

e---------------------------------------------
b-3------3--3------3--3------3---7-------7----
g----0---------0---------0----------0---------
d---------------------------------------------
a-3----3----3----3----3----3-----7----7-------
e---------------------------------------------

e---------------------------------------------
b-3------3--3------3--10-------10--7-------7--
g----0---------0----------0-----------0-------
d---------------------------------------------
a-3----3----3----3----10----10-----7----7-----
e---------------------------------------------

e--------------------------------0------------
b-8------8--8------8--8------8---8------------
g----0---------0---------0-------0------------
d--------------------------------7------------
a-8----8----8----8----8----8-----8------------
e---------------------------------------------

Verses: x4

e-------------------------------------------------
b-3------3----3--------5------------6-------------
g----0-----0-----0---------0----0-------0---------
d-------------------0--------4-------------0------
a-3----3---------------5----------------------5---
e-------------3---------------------6-------------

then

e-------------
b-7------7----
g----0--------
d-------------
a-7----7------
e-------------

Pre Chorus:

e---------------------------------------------------
b-3------3----3------3---3------3---10--------10----
g----0-----0-----0----------0----------0----0-------
d---------------------------------------------------
a-3----3------3----3-----3----3-----10---10---------
e---------------------------------------------------

e----------------------0----------------------------
b-7------7--7------7------0------7-------7----------
g----0---------0------------0-------0---------------
d---------------------------------------------------
a-7----7----7----7-----7------7--7----7-------------
e---------------------------------------------------

e----------------------------0----------------------
b-3------3--3------3--3------3--10-------10---------
g----0---------0--------------------0---------------
d---------------------------------------------------
a-3----3----3----3----3----3----10----10------------
e---------------------------------------------------

e---------------------------------------------------
b-7------7--7--------8------8--8--------------------
g----0---------0---------------0--------------------
d------------------------------7----------0---------
a-7----7----7----7---8----8----8--------------------
e---------------------------------------------------

Chorus:

e-3---3-3--3--3---3-3-3-----------------4--4-4-4-3------
b-3---3-3--3--3---3-3-3-6-6--6--6-6-6---4--4-4-4-3------
g-4---4-4--4--4---4-4-4-0-0--0--0-0-0---5--5-5-5-4------
d-5---5-5--5--5---5-5-5-8-8--8--8-8-8-x-6--6-6-6-5------
a-5---5-5--5--5---5-5-5-6-6--6--6-6-6-x-6--6-6-6-5------
e-3---3-3--3--3---3-3-3---------------x-4--4-4-4-3------

Outro: play pre chorus w/

e---------------------------------------------------
b---------------------------------------------------
g-7-7---7---7---7---7/9-9-9--9--911-11--11--11b-----
d-x-x---x---x---x---x-x-x-x--x--x-x--x---x---x------
a-5-5---5---5---5---5/7-7-7--7--7/9--9---9---9b-----
e---------------------------------------------------

e---------------------------------------------------
b---------------------------------------------------
g11-9--9----7--7----7--7--7-7---7/9--9-9-9----911---
d-x-x--x----x--x----x--x--x-x---x-x--x-x-x----x-x---
a-97--7---5--5----5--5--5-5---5/7--7-7-7----7/9---
e---------------------------------------------------

e---------------------------------------------------
b---------------------------------------------------
g11111111-11--12--12-12--16-16-16-16--19-19-19--19--
d-x-x-x-x--x--x---x--x---x--x--x--x---x--x--x---x---
a-9-9-9-9--9--10--10-10--14-14-14-14--17-17-17--17--
e---------------------------------------------------

ahhhhh that took too long

trevor jones
[email protected]


Текст, аккорды и табулатура для песни "3 Libras", исполняет "Perfect Circle".
Используемые в песне аккорды можно найти в разделе Как брать аккорды. Аккорды для шестиструнной гитары. Другие песни можно найти на нашем сайте, воспользовавшись алфавитным указателем вверху страницы.


 
Ошибка в тексте? Выделите ошибку и нажмите Ctrl+Enter