Переделанные песни (Пародии), Король и Шут "Лесник".
Am
---0-0-|два раза
|------1-1-3-3-----|
|--2-2-------------|
-------|
-------|
-------|
F
|----------3-3-1-1-|два раза
|------1-1---------|
|--2-2-------------|
-------|
-------|
-------|
Dm
|--3-3-1-1-0-0-----|два раза
---3-3-|
-------|
-------|
-------|
-------|
G
-------|два раза
|------0-0-1-1-3-3-|
|--0-0-------------|
-------|
-------|
-------|

1куплет:
Am         Am           F            G
Замученный скинами я выбился из сил
И в доме у Горшка я ночлега попросил.
С улыбкою беззубой меня он в дом пустил,
И водкою прикольной конечно угостил.

Припев:
 Am
Пейте водку панки,
   F
Это нужная вода,
   Dm
Это нужная вода,
   Gm
Это нужная вода.
Бейте скинов панки,
Это просто гопота,
Это просто гопота,
Это просто гопота,

2куплет:
В глазах моих темнело, пьянел я за столом,
Горшок добавил пива, помог бороться с сном.
И  вскоре  я  забылся  от  радости  такой
Ведь я совсем не хиппи а только панк простой.
припев.

3куплет:
И гопота завыла у Миши под окном,
Горшок заулыбался и вдруг покинул дом.
Но вскоре возвратился он с гриндами в зубах
И радостно промолвил "забудем о скинах"

--------------------------------|два раза.
--------------------------------|
--------------------------------|
--------------------------------|
|----7-7-8-7---7-7-8-7---3-3-5-3---5-5-7-5--|
|--5---------5---------1---------3----------|


Текст, аккорды и табулатура для песни "Король и Шут. "Лесник"", исполняет "Переделанные песни (пародии)".
Используемые в песне аккорды можно найти в разделе Как брать аккорды. Аккорды для шестиструнной гитары. Другие песни можно найти на нашем сайте, воспользовавшись алфавитным указателем вверху страницы.


 
Ошибка в тексте? Выделите ошибку и нажмите Ctrl+Enter