STRAIGHT AHEAD - Pennywise


By:[email protected]

Intro
e|--------------------------------------------------------------------|
B|--------------------------------------------------------------------|
G|------6-6--8-8-8--------6-6-----------------------------------------|
D|-8-8--6-6--8-8-8---3-3--6-6--6-6------------------8-8-8-8-8-8-8-8---|
A|-8-8--4-4--6-6-6---3-3--4-4--6-6------------------8-8-8-8-8-8-8-8---|
E|-6-6---------------1-1-------4-4------------------6-6-6-6-6-6-6-6---|

B  variation
e|--------------------------------------------------------------------|
B|--------------------------------------------------------------------|
G|------6-6--8-8-8-------------------------6-6--8--8--10-10-10--10----|
D|-8-8--6-6--8-8-8---3-3--6-6-3-3-----8-8--6-6--8--8--10-10-10--10----|
A|-8-8--4-4--6-6-6---3-3--6-6-3-3-----8-8--4-4--6--6---8--8--8---8----|
E|-6-6---------------1-1--4-4-1-1-----6-6-----------------------------|

Verse
e|--------------------------------------------------------------------|
B|--------------------------------------------------------------------|
G|--------------------------------------------------------------------|
D|-6--6-6---8-------6--8---------------------------------------------|
A|-6--6-6---8-------6--8---------------------------------------------|
E|-4--4-4---6-------4--6---* pick scrape-----------------------------|

all your problems wont go away
e|--------------------------------------------------------------------|
B|--------------------------------------------------------------------|
G|--6--6--6-6-6-6-6---------------------------------------------------|
D|--6--6--6-6-6-6-6----8-8-8-8-8-8-8----------------------------------|
A|--4--4--4-4-4-4-4----8-8-8-8-8-8-8----------------------------------|
E|---------------------6-6-6-6-6-6-6----------------------------------|

solo              (just use these notes and improvise,Chuck Berry style)
e|--------------------------------------------------------------------|
B|--------------------------------------------------------------------|
G|---5 6 8------------------------------------------------------------|
D|--------------------------------------------------------------------|
A|--------------------------------------------------------------------|
E|--------------------------------------------------------------------|

e|--------------------------------------------------------------------|
B|--------------------------------------------------------------------|
G|-6--6--8--6--5--5h6p5-----10 10 12 12---12--15----------------------|
D|--------------------------------------------------------------------|
A|--------------------------------------------------------------------|
E|--------------------------------------------------------------------|

ending
e|--------------------------------------------------------------------|
B|--------------------------------------------------------------------|
G|--------------------------------------------------------------------|
D|---8-/--------------------------------------------------------------|
A|---8-/--------------------------------------------------------------|
E|---6-/--------------------------------------------------------------|


Текст, аккорды и табулатура для песни "Straight Ahead", исполняет "Pennywise".
Используемые в песне аккорды можно найти в разделе Как брать аккорды. Аккорды для шестиструнной гитары. Другие песни можно найти на нашем сайте, воспользовавшись алфавитным указателем вверху страницы.


Слушать онлайн Straight Ahead


PennywiseStraight Ahead на Яндекс.Музыке


 
Ошибка в тексте? Выделите ошибку и нажмите Ctrl+Enter