From: Rambozo 
Subject: Rules by Pennywise


intro:
e-|-------------------------------------------
B-|-------------------------------------------
G-|-7-7-10-10-7-7-10-10-7-7-10-10-12-12-12-12-
D-|-7-7-10-10-7-7-10-10-7-7-10-10-12-12-12-12-
A-|-5-5--8--8-5-5--8--8-5-5--8--8-10-10-10-10-   x2
E-|-------------------------------------------

verse:
e-|-----------------------------------------------------------------
B-|-----------------------------------------------------------------
G-|-7-7-7-7-5-5-5-5-----------------7-7-7-7-5-5-5-5-----------------
D-|-7-7-7-7-5-5-5-5-5-5-5-5-7-7-7-7-7-7-7-7-5-5-5-5-5-5-5-5-7-7-7-7-
A-|-5-5-5-5-3-3-3-3-5-5-5-5-7-7-7-7-5-5-5-5-3-3-3-3-5-5-5-5-7-7-7-7-
E-|-----------------3-3-3-3-5-5-5-5-----------------3-3-3-3-5-5-5-5-

                                           chorus:
e-|------------------------------------------------------------------
B-|------------------------------------------------------------------
G-|-7-7-7-7-5-5-5-5-----------------10-10-10-10-9-10-10-10-9-7-7-7-7-
D-|-7-7-7-7-5-5-5-5-5-5-5-5-7-7-7-7-10-10-10-10-9-10-10-10-9-7-7-7-7-
A-|-5-5-5-5-3-3-3-3-5-5-5-5-7-7-7-7--8--8--8--8-7--8--8--8-7-5-5-5-5-
E-|- ---------------3-3-3-3-5-5-5-5----------------------------------

e-|-----------------------------------------------------------------
B-|-----------------------------------------------------------------
G-|-7-7-7-7-5-5-5-5-10-10-10-10-7-7-7-7-7-7-7-7-9-9-9-9-10-10-10-10-
D-|-7-7-7-7-5-5-5-5-10-10-10-10-7-7-7-7-7-7-7-7-9-9-9-9-10-10-10-10-
A-|-5-5-5-5-3-3-3-3--8--8--8--8-5-5-5-5-5-5-5-5-7-7-7-7--8--8--8--8-
E-|-----------------------------------------------------------------


e-|----------------------------------------------------------------|
B-|----------------------------------------------------------------|
G-|-7-7-7-7-7-7-7-7-5-5-5-5-5-5-5-5-3-3-3-3-3-3-3-3-2--10-10-10-10-|
D-|-7-7-7-7-7-7-7-7-5-5-5-5-5-5-5-5-3-3-3-3-3-3-3-3-2--10-10-10-10-|
A-|-5-5-5-5-5-5-5-5-3-3-3-3-3-3-3-3-1-1-1-1-1-1-1-1-0---8--8--8--8-|
E-|----------------------------------------------------------------|


bridge:
e-|---------------------------------------------------------------
B-|---------------------------------------------------------------
G-|-7-7-7-7-7-7-7-7-5-5-5-5-5-5-5-5-5-5-10-10-5-5-10-10-5-5-10-10-
D-|-7-7-7-7-7-7-7-7-5-5-5-5-5-5-5-5-5-5-10-10-5-5-10-10-5-5-10-10-
A-|-5-5-5-5-5-5-5-5-3-3-3-3-3-3-3-3-3-3--8--8-3-3--8--8-3-3--8--8-
E-|---------------------------------------------------------------

e-|---------------------------------------------------------------
B-|---------------------------------------------------------------
G-|-7-7-10-10-7-7-7-7-7-7-7-7-5-5-5-5-5-5-5-5-5-5-10-10-5-5-10-10-
D-|-7-7-10-10-7-7-7-7-7-7-7-7-5-5-5-5-5-5-5-5-5-5-10-10-5-5-10-10-
A-|-5-5--8--8-5-5-5-5-5-5-5-5-3-3-3-3-3-3-3-3-3-3--8--8-3-3--8--8-
E-|---------------------------------------------------------------

e-|--------------------------------------------|
B-|--------------------------------------------|
G-|-7-7-10-10-10-7-10-10-7-7-10-10-12-12-12-12-|
D-|-7-7-10-10-10-7-10-10-7-7-10-10-12-12-12-12-|
A-|-5-5--8--8--8-5--8--8-5-5--8--8-10-10-10-10-|
E-|--------------------------------------------|
WHOEVER SENT ME THE E-MAIL ABOUT MR.JONES BY NOFX... I LOST YOUR E-MAIL 
ADDRESS... SO COULD YOU E-MAIL ME BACK...THANX
transcribed by rambozo


Текст, аккорды и табулатура для песни "Rules", исполняет "Pennywise".
Используемые в песне аккорды можно найти в разделе Как брать аккорды. Аккорды для шестиструнной гитары. Другие песни можно найти на нашем сайте, воспользовавшись алфавитным указателем вверху страницы.


Слушать онлайн Rules


PennywiseRules на Яндекс.Музыке


 
Ошибка в тексте? Выделите ошибку и нажмите Ctrl+Enter