Band:Pennywise
Song:Pennywise
=============================================================================================

Verse:
Play 3x's
G------------------------------------------------------------
D-------------------------------------333333-3---------------
A--333----5--333-----5----333-----5--------------------------
E------3----------3------------3-----------------------------

Chourus:
Play 2x's
G------------------------------------------------------------
D--0-2-0-2-0----------0-2-0-2-0------------------------------
A------------2222222-----------0000000-----------------------
E------------------------------------------------------------

REPEAT Verse & Chorus

Bridge to slower part:
(Play Short)
G------------------------------------------------------------
D--------------2------2--------------------------------------
A--3---5--3---5--3---5----3----------------------------------
E----3------3------3-----------------------------------------

Slower Verse:
Play 2x's
G------------------------------------------------------------
D-------------------------------------333333-3---------------
A--333------5--333------5--333-----5-------------------------
E------333---------333---------333---------------------------

Slower Chorus:
Play 2x's
G------------------------------------------------------------
D--0-2-0-2-0----------0-2-0-2-0------------------------------
A------------2222222-----------0000000-----------------------
E------------------------------------------------------------

G------------------------------------------------------------
D-------------------------------------333333-3(hold)---------
A--333------5--333------5--333-----5-------------------------
E------333---------333---------333---------------------------

Ending:
G------------------------------------------------------------
D------------------------------------------------------------
A--333----5--333-----5----333-----5--------------------------
E------3----------3------------3-----0(hold)---7(hold)--0--

Figured out and corrected by Sam of the pee pee band...


Текст, аккорды и табулатура для песни "Pennywise", исполняет "Pennywise".
Используемые в песне аккорды можно найти в разделе Как брать аккорды. Аккорды для шестиструнной гитары. Другие песни можно найти на нашем сайте, воспользовавшись алфавитным указателем вверху страницы.


Слушать онлайн Alien


PennywiseAlien на Яндекс.Музыке


 
Ошибка в тексте? Выделите ошибку и нажмите Ctrl+Enter