LIVING FOR TODAY - Pennywise


By:pmw mt

Intro
none of the chord struming is exact. listen to the record and figure it out yourself. 
e|----------------------------------------------------------------------------|
B|----------------------------------------------------------------------------|
G|---------------------------10101099-555-777-----1010/99-555----------------|
D|--7--------------------777-10101099-555-777-777-1010/99-555-553/5---------|
A|--7--strum a few times-777-8-8-8-77-333-555-777-8-8-/77-333-553/5---------|
E|--5--------------------555-------------------555-------------331/3---------|

e|------------------------------------------------------------------------------|
B|------------------------------------------------------------------------------|
G|------10101099-555-777-----101010-121212-------------------------------------|
D|--777-10101099-555-777-777-101010-121212-------------------------------------|
A|--777-8-8-8-77-333-555-777-8-8-8--101010....then into verse wich is the same-|
E|--555-------------------555--------------------(listen to the record)---------|

chorus(palm muting changes later in song)
e|---------------------------------------------------------------------------|
B|---------------------------------------------------------------------------|
G|-------------------------------------------------1010-9--------------------|
D|--7------------------1010-5--7-------------------1010-9--x2----------------|
A|--7-> palm mute      palm mute    


Текст, аккорды и табулатура для песни "Living For Today", исполняет "Pennywise".
Используемые в песне аккорды можно найти в разделе Как брать аккорды. Аккорды для шестиструнной гитары. Другие песни можно найти на нашем сайте, воспользовавшись алфавитным указателем вверху страницы.


Слушать онлайн Living for Today


PennywiseLiving for Today на Яндекс.Музыке


 
Ошибка в тексте? Выделите ошибку и нажмите Ctrl+Enter