intro
G----------------------------------------------------------------
D----------------------------------------------------------------
A--------------3-11-111-111-11-0--------------3--------66-888----x2
E-33-333-333-33-----------------11-111-111-11--33-3333-----------
                                     
                                 verse
G----------------------------------------------------------------
D----------------------------------------------------------------
A---------311111110----------3---66888------------------------x2
E-33333333-----------11111111-333333-----------------------------
                            
                       pre chorus(f**k authority...)
G----------------------------------------------------------------
D----------------------------------------------------------------
A---------11111111-333333333-------------------------------------x2
E-33333333------------------33333333-----------------------------
                        
                 chorus(frustration domanation...)
G---------------------------------------------------
D---------------------------------------------------
A---------11111111-333333333------------------------x2
E-33333333------------------33333333----------------
                 
                    post chorus
G-------------------------------------------
D-------------------------------------------
A-31----6666----3333----666-----------------
E---3333----3333----3333---33333333---------

                                  interlude
G--------------------------------------------------------------------------
D--------------------------------------------------------------------------
A-6666--------------6666------------6666888------------66668888--1212121212
E-----66668633333333----666686333333-------666833333333--------68----------

order:follow the song


Текст, аккорды и табулатура для песни "Fuck Authority", исполняет "Pennywise".
Используемые в песне аккорды можно найти в разделе Как брать аккорды. Аккорды для шестиструнной гитары. Другие песни можно найти на нашем сайте, воспользовавшись алфавитным указателем вверху страницы.


 
Ошибка в тексте? Выделите ошибку и нажмите Ctrl+Enter